PrimaNota.ru - самый крупный в мире бесплатный архив песенных текстов, аккордов, табулатур и нот


Clutch - Drink To The Dead - текст песни, таба, бас-таба, видео

Регистрация Запомнить меня
Войти через:  Facebook Google Twitter Vk Yandex Mail.ru

Clutch - Drink To The Dead - текст песни, таба, бас-таба, видео

Печатать
Просмотров: 126
Авторы: Clutch

Drink to the Dead
written and performed by Clutch
from the album "Pure Rock Fury"
transcribed by Don Shiner
email:  dms367_1@hotmail.com

Intro:
|-------------------------|----------------------|
|-------------------------|----------------------|
|.------------------------|----------------------|
|.-2----------------------|-2--------------------|
|--2----------------------|-2--------------------|
|--0----------------3^-3^-|-0--------------------|

Verse:
"If knee deep in catnip at the old icebox..."
|------------------|---------------|-----------------|----------------|
|------------(12)--|---------------|-----------(12)--|----------------|
|.-----------------|-7/9-9--7/9----|-7/9-9--7/9------|---------------.|
|.-7/9-9--7/9------|-7/9-9--7/9----|-7/9-9--7/9------|-7/9-9--7/9----.|
|--7/9-9--7/9------|-5/7-7--5/7----|-5/7-7--5/7------|-7/9-9--7/9-----|
|--5/7-7--5/7------|---------------|-----------------|-5/7-7--5/7-----|

Bridge:
"May you go marching in three-measure time..."
|-------------|-------------|-------------|-------------|
|-------------|-------------|-------------|-------------|
|-------------|-7-----------|-------------|-------------|
|-9-----------|-7-----------|-7-----------|-2-----------|
|-9-----------|-5-----------|-7-----------|-2-----------|
|-7-----------|-------------|-5-----------|-0-----------|

Fill:
|----------|-------------------------|
|----------|-------------------------|
|----------|-------------------------|
|----------|-2-----------------------|
|----------|-2-----------------------|
|----3^-3^-|-0-----------------------|

Chorus:
"Drink to the dead all you still alive..."
|-----------------|-----------------|-----------------|-----------------|
|-----------------|-----------------|-----------------|-----------------|
|-----------------|-----------------|-7---------------|-9---------------|
|-2---------------|-7---------------|-7---------------|-9---------------|
|-2---------------|-7---------------|-5---------------|-7---------------|
|-0---------------|-5---------------|-----------------|-0---------------|
|
|
|-----------------|-----------------|-----------------|-----------------|
|-12-12^r-12-12^r-|-10-10^r-10-10^r-|-10-10^r-10-10^r-|-12-12^r-12-12^r-|
|-----------------|-----------------|-----------------|-----------------|
|-----------------|-----------------|-----------------|-----------------|
|-----------------|-----------------|-----------------|-----------------|
|-----------------|-----------------|-----------------|-----------------|

Break:
|------------------------|-------------------------|-----------------|
|------------------------|-------------------------|-----------------|
|------------------------|-------------------------|-----------------|
|-9--7-------------------|----7--9-----------------|----7--9-----7---|
|-------7--5-----7^r--5--|-9--------7--5--7--5--7--|-9--------7--5---|
|-------------7----------|-------------------------|-----------------|

     
Добавлено: 12.08.2013
Другие материалы по этой песне:

Страница создана 29.03.2012
http://primanota.ru/clutch/drink-to-the-dead-chords.htm
Привет, Гость.
Предлагаем пройти революционный курс по гитаре.
Подарок от PrimaNota.Ru, забирай!