PrimaNota.ru - самый крупный в мире бесплатный архив песенных текстов, аккордов, табулатур и нот


Clutch - Decapitation Blues - таба, видео

Регистрация Запомнить меня
Войти через:  Facebook Google Twitter Vk Yandex Mail.ru

Clutch - Decapitation Blues - таба, видео

Печатать
Просмотров: 49
CLUTCH
"Decapitation Blues"
From the album "Psychic Warfare" (2015)

Tuning: D A D G B E
12/8 Time
Tempo: 135 bpm

 Intro
|-----------------|------------------------|
|-----------------|------------------------|
|-----------------|------------------------|
|-0---------------|-2-3-3-3-2---2----------|
|-0---------------|-----------5---5-3-5----|
|-0---------------|------------------------|


   Verse
||--------------------|-------------------|--------------------|--------------------------||
||o-------------------|-------------------|--------------------|-------------------------o||
||--5--5--5--5--5--5--|-5--5--5--5--5--5--|--------------------|--------------------------||
||--5--5--5--5--5--5--|-5--5--5--5--5--5--|--------------------|--------------------------||
||o-3--3--3--3--3--3--|-3--3--3--3--3--3--|-3--5---3-3-5-5-5---|-3-3--5-5---3-3----------o||
||--------------------|-------------------|--------------------|----------------0-0-0-----||

Fourth time end with
|--------------------|---------------|
|--------------------|---------------|
|--------------------|---------------|
|--------------------|---------------|
|-3--5---3-3-5-5-5---|-3-5-----------|
|--------------------|---------------|


 Chorus
|-------------------|-----------------------|-------------------|--------------------------|
|-------------------|-----------------------|-------------------|--------------------------|
|-------------------|-----------------------|-------------------|--------------------------|
|-------------------|-----------------------|-------------------|--------------------------|
|-----0--1-----1--3-|-(3)----3--5---5-5-3-0-|-----1--0-----3--1-|-(1)----5--5---5-5-3-0----|
|-0----------0------|------0----------------|-0----------0------|------0-------------------|


|-------------------|-----------------------|-------------------|-------------|
|-------------------|-----------------------|-------------------|-------------|
|-------------------|-----------------------|-------------------|-------------|
|-------------------|-----------------------|-------------------|-------------|
|-----0--1-----1--3-|-(3)----3--5---5-5-3-0-|-----1--0-----3--1-|-------------|
|-0----------0------|------0----------------|-0----------0------|-0------3----|


   Bridge                    x4                           x3
||---------------------------||  ||-----------------------||------------------|
||o------10--10---10-10-8---o||  ||o------9--9---9-9-7---o||----9-------------|
||------------------------9--||  ||--------------------8--||------------------|
||---------------------------||  ||-----------------------||------------------|
||o-------------------------o||  ||o---------------------o||-------4----------|
||--7--7---------------------||  ||--6--6-----------------||-6--------6--8----|

                             x4                             x2
||---------------------------||  ||-------------------------||
||o------10--10---10-10-8---o||  ||o------9--9---9-9-7-----o||
||------------------------9--||  ||--------------------8----||
||---------------------------||  ||-------------------------||
||o-------------------------o||  ||o-----------------------o||
||--7--7---------------------||  ||--6--6-------------------||


|---------------------|----------------------|
|------8--8---8-8-6---|----------------------|
|-------------------7-|----------------------|
|---------------------|----------------------|
|---------------------|----------------------|
|-5--5----------------|-4--4--4--10--10--10--|

Добавлено: 03.06.2016
Вам также может быть интересно:
Другие материалы по этой песне:
  • Аккорды и текст

Страница создана 03.06.2016
http://primanota.ru/clutch/decapitation-blues-chords.htm
Привет, Гость.
Предлагаем пройти революционный курс по гитаре.
Подарок от PrimaNota.Ru, забирай!