PrimaNota.ru - самый крупный в мире бесплатный архив песенных текстов, аккордов, табулатур и нот


Clutch - Cyborg Bette - таба, видео

Регистрация Запомнить меня
Войти через:  Facebook Google Twitter Vk Yandex Mail.ru

Clutch - Cyborg Bette - таба, видео

Печатать
Просмотров: 46
Авторы: Clutch

-------------------------------------------------------------------------------
                             Cyborg Bette - Clutch
                                Rhythm Guitar
-------------------------------------------------------------------------------
Tabbed by: Jorge Alexandre
E-mail: jorge2112alexandre(AT)gmail.com

Tuning: Drop D (eBGDAD)

Intro:

e|-------------------------------|
B|-------------------------------|
G|-------------------------------|
D|-------------------------------|
A|-0---------0-0--0-3-0-5-0-3----|
D|-0--0--3b--0-0-----------------|

Verse:

e|-----------------------------|
B|-----------------------------|
G|-----------------------------|
D|-----------------------------|
A|-0---------0--0-3-0-5-0-3----|
D|-0--0--3b--0-----------------|

NOTE: Please be mindful of picking/song dynamics. The two riffs above are very similar and you'll play them
many times during the song. Be sure to play tastefully, picking harder and making those D5 chords fuller as
needed in each part.

Chorus (strum the chords show in sync with the drums)
e|------------------|
B|------------------|
G|------------------|
D|-3-----5-----0----|
A|-3-----5-----0----|
D|-3-----5-----0----|

Interlude A (this part comes up at around 1:48)
NOTE: Play the first part twice, then hit that Bb and hang on to it. Play the entire Interlude A twice.

e|--------------------------------|--------|
B|--------------------------------|--------|
G|*------------------------------*|--------|
D|-------------3------------------|--8-----|
A|*-3h5--5--5------3h5--5--5-----*|--8-----|
D|----------------------------3---|--8-----|


Interlude B
e|--------------------------------------|
B|--------------------------------------|
G|--------------------------------------|
D|----------------------------------10--|
A|-------------3--------------3-----10--|
D|--5h7--5--5------5h7--5--5--------10--|


Get back to the main riff and chorus until the end of the song.


************************************

| /   slide up
| \   slide down
| h   hammer-on
| p   pull-off
| ~   vibrato
| +   harmonic
| x   Mute note
| b   Bend
| pb  Pre-bend
| br  Bend release
| pbr Pre-bend release
| brb Bend release bend

************************************
Добавлено: 03.06.2016
Другие материалы по этой песне:
  • Аккорды и текст

Страница создана 03.06.2016
http://primanota.ru/clutch/cyborg-bette-chords.htm
Привет, Гость.
Предлагаем пройти революционный курс по гитаре.
Подарок от PrimaNota.Ru, забирай!