PrimaNota.ru - самый крупный в мире бесплатный архив песенных текстов, аккордов, табулатур и нот


Clutch - Bindge And Purge - таба, видео

Регистрация Запомнить меня
Войти через:  Facebook Google Twitter Vk Yandex Mail.ru

Clutch - Bindge And Purge - таба, видео

Печатать
Просмотров: 144
Уроки эстрадного вокала в Санкт-Петербурге
hey, this my first attempt at tabbing this song... if you need any further instruction 
anything with this song please email me at Jeffcollinss@yahoo.com... please name the 
"bindge and purge tab help"

KEY+=---
H=HAMMER ON
P=PULL OFF
/=SLIDE UP
\SLIDE DOWN
*=Palm Mute
F=Finger mute
^=upstroke
v=Downstroke
---------
This MAY not be the correct exact tabs... but it is what sounds the closest to me... 
tryed to make it as easy to learn as possible... its a pretty simple song. and it 
helps if you listen to it while trying to play it repeatedly...


This song is played in Standard E tuning... you could play it in drop Dwith a barred 
but i find it easier in standard E...


Intro---(0:00-0:31----------------------------------------| (X8)
e|------|-------------------------------------------------|
G|------|-------------------------------------------------|
B|------|-------------------------------------------------|
D|------|-------------------------------------------------|
A|------|-------------------------------------------------|
E|---3--|-0H5---3-----------------------------------------|
NOTES: play the 3 on E String to open song. then repeat "0H5--3" 8 times... turn your 
down while bass and drums come in... and as the first verse with guitar comes in let the 
pickup until you play. the feedback starts in at 0:41 and you begin to play at 0:45.


Guitar Riff 1 (0:45-1:00)(X4)
e|-------------------------|
G|-------------------------|
B|------------------3------|
D|------------------1------|
A|--55555-5-5-5-5-5--------|
E|--33353-0-3-0-3-0--------|
    v^v^v ^ v ^ v ^ v

NOTES:the stroking isn't that important is just makes the song sound better to 
you leave your ring finger on the five and hammer on and off the three...

Guitar Riff 2 (same as intro) (1:00-1:18)(X4)
e|------|-----------------------------------------------|
G|------|-----------------------------------------------|
B|------|-----------------------------------------------|
D|------|-----------------------------------------------|
A|------|-----------------------------------------------|
E|---3--|-0H5---3---------------------------------------|

NOTES: pretty much the same thing as the intro... only this time play it 4 times... and 
to only repeat the "0H5--3". let the 3 ring to 1:18 by turning your guitar volume down...

guitar riff 3 bridge sorta thingy...(1:46-1:49) (X1)
e|-------------------|
G|-------------------|
B|-------------------|
D|-------------------|
A|--5555555555555555-|
E|--3333333333333333-|
    vvvvvvvvvvvvvvvv
Notes: PLAY FAST!(all downstrokes)

Guitar riff 4 (yep this one again...)(1:50-2:07)(X4)
e|------|-----------------------------------------------|
G|------|-----------------------------------------------|
B|------|-----------------------------------------------|
D|------|-----------------------------------------------|
A|------|-----------------------------------------------|
E|---3--|-0H5---3---------------------------------------|

Notes: (haha, you already know this one)

Guitar Riff 5(2:25-3:05) (X8)
e|-------------------------|
G|-------------------------|
B|------------------3------|
D|------------------1------|
A|--55555-5-5-5-5-5--------|
E|--33353-0-3-0-3-0--------|
    v^v^v ^ v ^ v ^ v
NOTES: yep you've played this one before too... same thing as the first riff... BUT this 
you play this next riff and come back into the same riff...

Riff 6 (3:05-3:10)
e|--------------------|
G|--------------------|
B|--------------------|
D|--------------------|
A|---5--3--8--7--5----|
E|---3--1--6--5--3----|


Guitar Riff 7 (3:10-3:23) (X4)
e|-------------------------|
G|-------------------------|
B|------------------3------|
D|------------------1------|
A|--55555-5-5-5-5-5--------|
E|--33353-0-3-0-3-0--------|
    v^v^v ^ v ^ v ^ v

Riff 8(3:24-3:28)
e|--------------------|
G|--------------------|
B|--------------------|
D|--------------------|
A|---5--3--8--7--5----|
E|---3--1--6--5--3----|


Guitar riff 9 (3:29-3:44) (X4)
e|------|-----------------------------------------------|
G|------|-----------------------------------------------|
B|------|-----------------------------------------------|
D|------|-----------------------------------------------|
A|------|-----------------------------------------------|
E|---3--|-0H5---3---------------------------------------|

NOTES: BLAHH BLAHH BLAHH you already know what to do...


Guitar riff 10 (4:12-4:13)
e|-----------------------------------------------|
G|-----------------------------------------------|
B|-----------------------------------------------|
D|-----------------------------------------------|
A|-----------------------------------------------|
E|-0H5---3---------------------------------------|

Notes: quick little hammer thingy... let it ring out..

Guitar riff 11 (4:42-4:45)
e|-------0---------------------------------------|
G|-------0---------------------------------------|
B|-------0---------------------------------------|
D|-------0---------------------------------------|
A|-------0---------------------------------------|
E|-0H5---0---------------------------------------|

WAHOOO THE BEST PART.

e|------------|
G|------------|
B|------------|
D|------------|
A|-8-7-6-3/5--|
E|-6-5-4-1/3--|


(X2)
e|-----------------|-----|-----------------------------|
G|-----------------|-----|-----------------------------|
B|-----------------|-----|-----------------------------|
D|-----------------|--6-6|-----------------------------|
A|--5-F-5-F-F-5-5--|--4-4|----5-F-5-F-F-5-5------------|
E|--3-F-3-F-F-3-3--|-----|----3-F-3-F-F-3-3------------|

Then play this agian...
e|------------|
G|------------|
B|------------|
D|------------|
A|-8-7-6-3/5--|
E|-6-5-4-1/3--|

...
(X2)
e|-----------------|-----|-----------------------------|
G|-----------------|-----|-----------------------------|
B|-----------------|-----|-----------------------------|
D|-----------------|--6-6|-----------------------------|
A|--5-F-5-F-F-5-5--|--4-4|----5-F-5-F-F-5-5------------|
E|--3-F-3-F-F-3-3--|-----|----3-F-3-F-F-3-3------------|

im sure you could figure out the rest of the song with those riffs...

SERIOUSLY if you need ANY help. or you just wanna say thanks or WHATEVER... just email 
or get at me on aim... sn=FUUCCCKK THAT
Добавлено: 23.03.2012
Другие материалы по этой песне:
  • Аккорды и текст

Страница создана 23.03.2012
http://primanota.ru/clutch/bindge-and-purge-chords.htm
Привет, Гость.
Предлагаем пройти революционный курс по гитаре.
Подарок от PrimaNota.Ru, забирай!