PrimaNota.ru - самый крупный в мире бесплатный архив песенных текстов, аккордов, табулатур и нот


Clutch - 50000 Unstoppable Watts - таба, видео

Регистрация Запомнить меня
Войти через:  Facebook Google Twitter Vk Yandex Mail.ru

Clutch - 50000 Unstoppable Watts - таба, видео

Печатать
Просмотров: 181
Уроки эстрадного вокала в Санкт-Петербурге
Авторы: Clutch

Band: Clutch
Song: 50,000 Unstoppable Watts
Album: Strange Cousins from the West
Year: 2009
Tabbed By: cgoff23
Email: chrissyisno1@hotmail.com

Ok guys this is my first tab so apologies if it is a bit messy or whatever. 
i have not tabbed the solo or the little build up before the chorus as i am yet to 
figure them out.
both pretty easy to figure out i just dont have anytime at the moment to tab them.

Key:  / = Slide
      h = Hammer On
      p = Pull Off
      ~ = Let Ring
      br = Bend Release

Intro

E|--------------------------------------------|
B|--------------------------------------------|
G|--------------------------------------------|
D|------------------5-----------5-------------|
A|-9/10-----7--5--------7--5------------------|
E|-7/8------------7-----------7--------7--8---|

E|--------------------------------------------|
B|--------------------------------------------|
G|--------------------------------------------|
D|-----------5--------------------------------|
A|--7--5---------7--5--7----------------------|
E|--------7----------------7--8---------------|

Verse

E|--------------------------------------------|
B|--------------------------------------------|
G|--------------------------------------------|
D|-------------------------0h2--2--2p0--------|
A|----2-----2-----2-----2---------------2p0---|
E|-3--0--3--0--3--0--3--0---------------------|

E|--------------------------------------------|
B|--------------------------------------------|
G|--------------------------------------------|
D|-------0h2--2--------0h2--2--2p0------------|
A|----2-------------2---------------2p0-------|
E|-3--0----------3--0-------------------------|

E|--------------------------------------------|
B|--------------------------------------------|
G|--------------------------------------------|
D|-------0h2--2-------------------------------|
A|----2---------------------------------------|
E|-3--0---------------------------------------|

Pre Chorus:

E|-0~-----------------------------0~----------|
B|-0~-----------------------------0~----------|
G|----3br--2p0--------------------------------|
D|--------------2p0---------------------------|
A|--------------------2p0------2--------------|
E|-------------------------3---0--------------|

Chorus

E|--------------------------------------------|
B|--------------------------------------------|
G|--------------------------------------------|
D|--------------------------------------------|
A|--------------------------------------------|
E|-10--12--12--12--0--10--12--15--12----------|
  PM.............     ..............

So there you go just repeat them as many times as you need to and have fun playing this 
tune. Im 99% Sure This 100% Correct. However, there maybe some problems with the pre 
but it fits it.

Any Corrections/Comments Welcome to my email I will add to this and give you the credit.
Добавлено: 14.05.2012
Другие материалы по этой песне:

Страница создана 14.05.2012
http://primanota.ru/clutch/50000-unstoppable-watts-chords.htm
Привет, Гость.
Предлагаем пройти революционный курс по гитаре.
Подарок от PrimaNota.Ru, забирай!