PrimaNota.ru - самый крупный в мире бесплатный архив песенных текстов, аккордов, табулатур и нот


Clutch - 24 Earth Years - текст песни, бас-таба, видео

Регистрация Запомнить меня
Войти через:  Facebook Google Twitter Vk Yandex Mail.ru

Clutch - 24 Earth Years - текст песни, бас-таба, видео

Печатать
Просмотров: 37
Уроки эстрадного вокала в Санкт-Петербурге

[Intro/Chorus]

G|---------------------------------------------------|
D|---------------------------------------------------|
A|---------------------------------------------------|
E|--7\5-5-5\2-2-2p0h2p0-5-2--7\5-5-5\2-2-2p0h2p0-5~--|

G|---------------------------------------------------|
D|---------------------------------------------------|
A|---------------------------------------------------|
E|--7\5-5-5\2-2-2p0h2p0-5-2--7\5-5-5\2-2-2p0h2p0-5~--|

G|---------------------------------------------------|
D|---------------------------------------------------|
A|---------------------------------------------------|
E|--7\5-5-5\2-2-2p0h2p0-5-2--7\5-5-5\2-2-2p0h2p0-5~--|

G|---------------------------------------------------|
D|---------------------------------------------------|
A|---------------------------------------------------|
E|--7\5-5-5\2-2-2p0h2p0-5-2--7\5-5-5\2-2-2p0h2p0-5~--|


[Verse]

G|--------------------------------------------------------------------------------|
D|--9---7---7-5-----------------------------9---7---7-5---------------------------|
A|--------------7-5-------------------------------------7-5-----------------------|
E|--------------------5-5--7-7--5-5--7-7----------------------5-5--7-7--5-5--7-7--|

G|--------------------------------------------------------------------------------|
D|-----------------------------------------9---7---7-5----------------------------|
A|--7---5---5-3-------5-5--7-7--5-5-6-7------------------7-5----------------------|
E|--------------5-3-------------------------------------------5-5--7-7--5-5--7-7--|


[Pre-Chorus]

G|--------------------------------------------------------------------------------|
D|--------------------------------------------------------------------------------|
A|----------5---------7-5~-------------------------5---------7-5~-----------------|
E|--7~-7~-7---7~-5-7~------7-5~-5\2~-2-0~--7~-7~-7---7~-5-7~------7-5~-5\2~-2-0~--|

G|--------------------------------------------------------------------------------|
D|----------5---------7-5~-----------5-7~-----------------------------------------|
A|--7~-7~-7---7~-5-7~------7-5~-5-7~---------------5---------7-5~-----------------|
E|-----------------------------------------7~-7~-7---7~-5-7~------7-5~-5\2~-2-0~--|


[Chorus]

G|---------------------------------------------------|
D|---------------------------------------------------|
A|---------------------------------------------------|
E|--7\5-5-5\2-2-2p0h2p0-5-2--7\5-5-5\2-2-2p0h2p0-5~--|

G|---------------------------------------------------|
D|---------------------------------------------------|
A|---------------------------------------------------|
E|--7\5-5-5\2-2-2p0h2p0-5-2--7\5-5-5\2-2-2p0h2p0-5~--|

G|---------------------------------------------------|
D|---------------------------------------------------|
A|---------------------------------------------------|
E|--7\5-5-5\2-2-2p0h2p0-5-2--7\5-5-5\2-2-2p0h2p0-5~--|

G|---------------------------------------------------|
D|---------------------------------------------------|
A|---------------------------------------------------|
E|--7\5-5-5\2-2-2p0h2p0-5-2--7\5-5-5\2-2-2p0h2p0-5~--|


[Verse]

G|--------------------------------------------------------------------------------|
D|--9---7---7-5-----------------------------9---7---7-5---------------------------|
A|--------------7-5-------------------------------------7-5-----------------------|
E|--------------------5-5--7-7--5-5--7-7----------------------5-5--7-7--5-5--7-7--|

G|--------------------------------------------------------------------------------|
D|-----------------------------------------9---7---7-5----------------------------|
A|--7---5---5-3-------5-5--7-7--5-5-6-7------------------7-5----------------------|
E|--------------5-3-------------------------------------------5-5--7-7--5-5--7-7--|


[Pre-Chorus]

G|--------------------------------------------------------------------------------|
D|--------------------------------------------------------------------------------|
A|----------5---------7-5~-------------------------5---------7-5~-----------------|
E|--7~-7~-7---7~-5-7~------7-5~-5\2~-2-0~--7~-7~-7---7~-5-7~------7-5~-5\2~-2-0~--|

G|--------------------------------------------------------------------------------|
D|----------5---------7-5~-----------5-7~-----------------------------------------|
A|--7~-7~-7---7~-5-7~------7-5~-5-7~---------------5---------7-5~-----------------|
E|-----------------------------------------7~-7~-7---7~-5-7~------7-5~-5\2~-2-0~--|


[Chorus]

G|---------------------------------------------------|
D|---------------------------------------------------|
A|---------------------------------------------------|
E|--7\5-5-5\2-2-2p0h2p0-5-2--7\5-5-5\2-2-2p0h2p0-5~--|

G|---------------------------------------------------|
D|---------------------------------------------------|
A|---------------------------------------------------|
E|--7\5-5-5\2-2-2p0h2p0-5-2--7\5-5-5\2-2-2p0h2p0-5~--|

G|---------------------------------------------------|
D|---------------------------------------------------|
A|---------------------------------------------------|
E|--7\5-5-5\2-2-2p0h2p0-5-2--7\5-5-5\2-2-2p0h2p0-5~--|

G|---------------------------------------------------|
D|---------------------------------------------------|
A|---------------------------------------------------|
E|--7\5-5-5\2-2-2p0h2p0-5-2--7\5-5-5\2-2-2p0h2p0-5~--|


[Bridge]

G|-------------------------------------------------------------------|
D|-------------------------------------------------------------------|
A|-------5~~----7-9--5--------------5----------------------9~~--7~~--|
E|--7~~----------------7--7-5--5-7----7--7-5--5-2--2-0~--------------|


[Verse]

G|--------------------------------------------------------------------------------|
D|--9---7---7-5-----------------------------9---7---7-5---------------------------|
A|--------------7-5-------------------------------------7-5-----------------------|
E|--------------------5-5--7-7--5-5--7-7----------------------5-5--7-7--5-5--7-7--|

G|--------------------------------------------------------------------------------|
D|-----------------------------------------9---7---7-5----------------------------|
A|--7---5---5-3-------5-5--7-7--5-5-6-7------------------7-5----------------------|
E|--------------5-3-------------------------------------------5-5--7-7--5-5--7-7--|


[Pre-Chorus]

G|--------------------------------------------------------------------------------|
D|--------------------------------------------------------------------------------|
A|----------5---------7-5~-------------------------5---------7-5~-----------------|
E|--7~-7~-7---7~-5-7~------7-5~-5\2~-2-0~--7~-7~-7---7~-5-7~------7-5~-5\2~-2-0~--|

G|--------------------------------------------------------------------------------|
D|----------5---------7-5~-----------5-7~-----------------------------------------|
A|--7~-7~-7---7~-5-7~------7-5~-5-7~---------------5---------7-5~-----------------|
E|-----------------------------------------7~-7~-7---7~-5-7~------7-5~-5\2~-2-0~--|


[Chorus]

G|---------------------------------------------------|
D|---------------------------------------------------|
A|---------------------------------------------------|
E|--7\5-5-5\2-2-2p0h2p0-5-2--7\5-5-5\2-2-2p0h2p0-5~--|

G|---------------------------------------------------|
D|---------------------------------------------------|
A|---------------------------------------------------|
E|--7\5-5-5\2-2-2p0h2p0-5-2--7\5-5-5\2-2-2p0h2p0-5~--|

G|---------------------------------------------------|
D|---------------------------------------------------|
A|---------------------------------------------------|
E|--7\5-5-5\2-2-2p0h2p0-5-2--7\5-5-5\2-2-2p0h2p0-5~--|

G|---------------------------------------------------|
D|---------------------------------------------------|
A|---------------------------------------------------|
E|--7\5-5-5\2-2-2p0h2p0-5-2--7\5-5-5\2-2-2p0h2p0-5~--|


[Bridge]

G|-------------------------------------------------------------------|
D|-------------------------------------------------------------------|
A|-------5~~----7-9--5--------------5----------------------9~~--7~~--|
E|--7~~----------------7--7-5--5-7----7--7-5--5-2--2-0~--------------|


[End]

G|-------|
D|-------|
A|-------|
E|--7~~--|


************************************

| h   Hammer-on
| p   Pull-off
| \   Slide down
| ~   Vibrato

************************************
Добавлено: 04.06.2017
Другие материалы по этой песне:
  • Аккорды и текст

Страница создана 25.02.2012
http://primanota.ru/clutch/24-earth-years-chords.htm
Привет, Гость.
Предлагаем пройти революционный курс по гитаре.
Подарок от PrimaNota.Ru, забирай!