PrimaNota.ru - самый крупный в мире бесплатный архив песенных текстов, аккордов, табулатур и нот


Clues - Ledmonton - таба, видео

Регистрация Запомнить меня
Войти через:  Facebook Google Twitter Vk Yandex Mail.ru

Clues - Ledmonton - таба, видео

Печатать
Просмотров: 87
Clues - Ledmonton
- http://cstrecords.com/clues/
- http://en.wikipedia.org/wiki/Clues_%28band%29
Guitar
Tabbed by Binuts


     E  E  Q    Q    Q       E  E  E  E  E   E  E  E   
E||-----------------------|---------------------------|
B||-----------------------|---------------------------|
G||--1--3--5----5----5----|--3--1--3--1--3h--5--------|
D||--------3--------------|--------1------------3-----|
A||-------------3---------|------------------------1--|
E||------------------4----|---------------------------|


  E  E  E  E  E  E  E  E     E  E  E  E  E  E  Q       H         
--------------------------|-------------------------|-----------|
--------------------------|-------------------------|-----------|
--------------------------|-------------------------|-----------|
--3--5--6-----5--3--2-----|--5--6--3----------------|-----------|
-----------3-----------3--|-----------3-----3-------|-----------|
--------------------------|--------------4-----1----|-----------|


  Q    Q    H           H        H           H        H         
--1----0----4--------|--6--------6--------|--3--------3--------|
--1----1----4--------|--8--------6--------|--4--------5--------|
--1----0----5--------|--8--------7--------|--5--------5--------|
--3----2----6--------|--8--------8--------|--5--------5--------|
--3----3----6--------|--6--------8--------|--3--------3--------|
--1---------4--------|-----------6--------|--------------------|


   Q    Q    E.  S S S S S    Q    Q    E.  S S S S S  
---8----8------------------|-------8------------------|
---9-------------6---------|--9-----------------------|
--10---------7-----6-7-----|------------7---5-7-5-7---|
--10-------------------6-7-|--------------------------|
---8-----------------------|--------------------------|
---------------------------|--------------------------|


  Q    Q    E.  S S S S S    Q    Q    E.  S S S S S  
-------8------------------|-------8------------------|
--9-------------6---------|--9-----------------------|
------------7-----6-7-----|------------7---5-7-5-7---|
----------------------6-7-|--------------------------|
--------------------------|--------------------------|
--------------------------|--------------------------|


   E    E    E    E    E    E    E    E    
--(6)--(6)--(6)--(6)--(6)--(6)--(6)--(6)--|
--(6)--(6)--(6)--(6)--(6)--(6)--(6)--(6)--|
---7----7----7----7----7----7----7----7---|
---8----8----8----8----8----8----8----8---|
--(8)--(8)--(8)--(8)--(8)--(8)--(8)--(8)--|
--(6)--(6)--(6)--(6)--(6)--(6)--(6)--(6)--|


   E    E    E    E    E    E    E    E      Q     E.  S E  E   Q     
--(6)--(6)--(6)--(6)--(6)--(6)--(6)--(6)--|--------8------------8----|
--(6)--(6)--(6)--(6)--(6)--(6)--(6)--(6)--|--------9------------8----|
---7----7----7----7----7----7----7----7---|-------10------------9----|
---8----8----8----8----8----8----8----8---|-------10-----------10----|
--(8)--(8)--(8)--(8)--(8)--(8)--(8)--(8)--|--8-----8-----------10----|
--(6)--(6)--(6)--(6)--(6)--(6)--(6)--(6)--|------------6-8--8---8----|


  Q     E.  S S S E   Q       Q     E.  S S S E   Q     
--------8-------------8----|--------8-------------8----|
--------9-------------8----|--------9-------------8----|
-------10-------------9----|-------10-------------9----|
-------10------------10----|-------10------------10----|
--8-----8------------10----|--8-----8------------10----|
------------6-8-6-8---8----|------------6-8-6-8---8----|


                             ^    ^                                      
  Q     E.  S S S E  Q       Q    Q    Q    Q       Q    Q    Q    Q     
--------8-----------------|--1----0----4----4----|--6----6----6----6----|
--------9-----------------|--1----1----4----4----|--8----8----6----6----|
-------10-----------------|--2----0----5----5----|--8----8----7----7----|
-------10-----------------|--3----2----6----6----|--8----8----8----8----|
--8-----8-----------------|--3----3----6----6----|--6----6----8----8----|
------------6-8-6-8-------|--1---------4----4----|------------6----6----|


  Q    Q    Q    Q        Q    Q    E.  S S S S S    Q    Q    E.  S S S S S  
--3----3----3----3----|---8----8------------------|-------8------------------|
--4----4----5----5----|---9-------------6---------|--9-----------------------|
--5----5----5----5----|--10---------7-----6-7-----|------------7---5-7-5-7---|
--5----5----5----5----|--10-------------------6-7-|--------------------------|
--3----3----3----3----|---8-----------------------|--------------------------|
----------------------|---------------------------|--------------------------|


  Q    Q    E.  S S S S S    Q    Q    E.  S S S S S  
-------8------------------|-------8------------------|
--9-------------6---------|--9-----------------------|
------------7-----6-7-----|------------7---5-7-5-7---|
----------------------6-7-|--------------------------|
--------------------------|--------------------------|
--------------------------|--------------------------|


   E    E    E    E    E    E    E    E    
--(6)--(6)--(6)--(6)--(6)--(6)--(6)--(6)--|
--(6)--(6)--(6)--(6)--(6)--(6)--(6)--(6)--|
---7----7----7----7----7----7----7----7---|
---8----8----8----8----8----8----8----8---|
--(8)--(8)--(8)--(8)--(8)--(8)--(8)--(8)--|
--(6)--(6)--(6)--(6)--(6)--(6)--(6)--(6)--|


   E    E    E    E    E    E    E    E      Q     E.  S E  E   Q     
--(6)--(6)--(6)--(6)--(6)--(6)--(6)--(6)--|--------8------------8----|
--(6)--(6)--(6)--(6)--(6)--(6)--(6)--(6)--|--------9------------8----|
---7b---7b---7b---7b---7b---7b---7b---7b--|-------10------------9----|
---8----8----8----8----8----8----8----8---|-------10-----------10----|
--(8)--(8)--(8)--(8)--(8)--(8)--(8)--(8)--|--8-----8-----------10----|
--(6)--(6)--(6)--(6)--(6)--(6)--(6)--(6)--|------------6-8--8---8----|


  Q     E.  S S S E   Q       Q     E.  S S S E   Q     
--------8-------------8----|--------8-------------8----|
--------9-------------8----|--------9-------------8----|
-------10-------------9----|-------10-------------9----|
-------10------------10----|-------10------------10----|
--8-----8------------10----|--8-----8------------10----|
------------6-8-6-8---8----|------------6-8-6-8---8----|


  Q     E.  S S S E  Q       E  S S E  E    E  E  Q       H         
--------8-----------------|--1-------------------------|-----------|
--------9-----------------|--1-------------------------|-----------|
-------10-----------------|--1--1----------------------|-----------|
-------10-----------------|--3----3-------3g5----------|-----------|
--8-----8-----------------|--3------3----------6-------|-----------|
------------6-8-6-8-------|--1---------4----------8----|-----------|


   E   E   E   E   E   E   E   E     E  E  E  E  E  E  E  E   
---8---8---8---8---8---8---8---8--|--6--6--6--6--6--6--6--6--|
---8---8---8---8---8---8---8---8--|--8--8--8--8--8--8--8--8--|
---8---8---8---8---8---8---8---8--|--8--8--8--8--8--8--8--8--|
--10--10--10--10--10--10--10--10--|--8--8--8--8--8--8--8--8--|
--10--10--10--10--10--10--10--10--|--6--6--6--6--6--6--6--6--|
---8---8---8---8---8---8---8---8--|--------------------------|


   E   E   E   E   E   E   E   E     E  E  E  E  E  E  E  E   
---8---8---8---8---8---8---8---8--|--6--6--6--6--6--6--6--6--|
---8---8---8---8---8---8---8---8--|--8--8--8--8--6--6--6--6--|
---8---8---8---8---8---8---8---8--|--8--8--8--8--7--7--7--7--|
--10--10--10--10--10--10--10--10--|--8--8--8--8--8--8--8--8--|
--10--10--10--10--10--10--10--10--|--6--6--6--6--8--8--8--8--|
---8---8---8---8---8---8---8---8--|--------------6--6--6--6--|


   E   E   E   E   E   E   E   E     E  E  E  E  E  E  E  E   
---8---8---8---8---8---8---8---8--|--6--6--6--6--6--6--6--6--|
---8---8---8---8---8---8---8---8--|--8--8--8--8--8--8--8--8--|
---8---8---8---8---8---8---8---8--|--8--8--8--8--8--8--8--8--|
--10--10--10--10--10--10--10--10--|--8--8--8--8--8--8--8--8--|
--10--10--10--10--10--10--10--10--|--6--6--6--6--6--6--6--6--|
---8---8---8---8---8---8---8---8--|--------------------------|


   E   E   E   E   E   E   E   E     E  E  E  E  E  E  E  E   
---8---8---8---8---8---8---8---8--|--6--6--6--6--6--6--6--6--|
---8---8---8---8---8---8---8---8--|--8--8--8--8--6--6--6--6--|
---8---8---8---8---8---8---8---8--|--8--8--8--8--7--7--7--7--|
--10--10--10--10--10--10--10--10--|--8--8--8--8--8--8--8--8--|
--10--10--10--10--10--10--10--10--|--6--6--6--6--8--8--8--8--|
---8---8---8---8---8---8---8---8--|--------------6--6--6--6--|


   E   E   E   E   H           E   E   H.            
---8---8---8---8---8--------|-----------------------|
---8---8---8---8---8--------|-----------------------|
---8---8---8---8---8--------|--8--10--12------------|
--10--10--10--10--10--------|-----------------------|
--10--10--10--10--10--------|-----------------------|
---8---8---8---8---8--------|-----------------------|


   E  E   E  E   E   E   Q        E  E  Q    E   E  E   E   
------------------------------|----------------------------|
------------------------------|----------------------------|
--10--8--10--8--10--12--------|------7--8----7-------------|
------------------------10----|--10-------------10--9------|
------------------------------|------------------------10--|
------------------------------|----------------------------|


  E  E   H.              Q    Q.     E   E  E     Q    Q.     E   E  E   
----------------------|------------------------|------------------------|
----------------------|--------------8---------|--------------8---------|
--7--8----------------|-------8----------------|-------8----------------|
--------10------------|-----------------10-----|-----------------10-----|
----------------------|------------------------|------------------------|
----------------------|------------------------|------------------------|


   E   E   E   E   E   E   E   E     E  E  E  E  E  E  E  E   
---8---8---8---8---8---8---8---8--|--6--6--6--6--6--6--6--6--|
---8---8---8---8---8---8---8---8--|--8--8--8--8--8--8--8--8--|
---8---8---8---8---8---8---8---8--|--8--8--8--8--8--8--8--8--|
--10--10--10--10--10--10--10--10--|--8--8--8--8--8--8--8--8--|
--10--10--10--10--10--10--10--10--|--6--6--6--6--6--6--6--6--|
---8---8---8---8---8---8---8---8--|--------------------------|


   E   E   E   E   E   E   E   E     E  E  E  E  E  E  E  E   
---8---8---8---8---8---8---8---8--|--6--6--6--6--6--6--6--6--|
---8---8---8---8---8---8---8---8--|--8--8--8--8--6--6--6--6--|
---8---8---8---8---8---8---8---8--|--8--8--8--8--7--7--7--7--|
--10--10--10--10--10--10--10--10--|--8--8--8--8--8--8--8--8--|
--10--10--10--10--10--10--10--10--|--6--6--6--6--8--8--8--8--|
---8---8---8---8---8---8---8---8--|--------------6--6--6--6--|


   E   E   E   E   E   E   E   E     E  E  E  E  E  E  E  E   
---8---8---8---8---8---8---8---8--|--6--6--6--6--6--6--6--6--|
---8---8---8---8---8---8---8---8--|--8--8--8--8--8--8--8--8--|
---8---8---8---8---8---8---8---8--|--8--8--8--8--8--8--8--8--|
--10--10--10--10--10--10--10--10--|--8--8--8--8--8--8--8--8--|
--10--10--10--10--10--10--10--10--|--6--6--6--6--6--6--6--6--|
---8---8---8---8---8---8---8---8--|--------------------------|


   E   E   E   E   E   E   E   E     E  E  E  E  E  E  E  E   
---8---8---8---8---8---8---8---8--|--6--6--6--6--6--6--6--6--|
---8---8---8---8---8---8---8---8--|--8--8--8--8--6--6--6--6--|
---8---8---8---8---8---8---8---8--|--8--8--8--8--7--7--7--7--|
--10--10--10--10--10--10--10--10--|--8--8--8--8--8--8--8--8--|
--10--10--10--10--10--10--10--10--|--6--6--6--6--8--8--8--8--|
---8---8---8---8---8---8---8---8--|--------------6--6--6--6--|


   E   E   E   E   E   E   E   E      E   E   E   E   E  E  Q     
---8---8---8---8---8---8---8---8--|---8---8---8---8---8-----5----|
---8---8---8---8---8---8---8---8--|---8---8---8---8---8-----7----|
---8---8---8---8---8---8---8---8--|---8---8---8---8---8-----7----|
--10--10--10--10--10--10--10--10--|--10--10--10--10--10-----7----|
--10--10--10--10--10--10--10--10--|--10--10--10--10--10-----5----|
---8---8---8---8---8---8---8---8--|---8---8---8---8---8----------|


  E  E  E  E  E   E   E   E      E   E   E   E   E   E  E  E   
--6--6--6--6--6---8---8--10--|---8---8---8---8---8---8--5--5--|
--8--8--8--8--8--10--10--12--|---8---8---8---8---8---8--5--5--|
--8--8--8--8--8--10--10--12--|---8---8---8---8---8---8--7--7--|
--8--8--8--8--8--10--10--12--|--10--10--10--10--10--10--7--7--|
--6--6--6--6--6---8---8--10--|--10--10--10--10--10--10--5--5--|
-----------------------------|---8---8---8---8---8---8--------|


  E  E  E  E  E   E   E   E      E   E   E   E   E   E  E  E   
--6--6--6--6--6---8---8--10--|---8---8---8---8---8---8--5--5--|
--8--8--8--8--8--10--10--12--|---8---8---8---8---8---8--5--5--|
--8--8--8--8--8--10--10--12--|---8---8---8---8---8---8--7--7--|
--8--8--8--8--8--10--10--12--|--10--10--10--10--10--10--7--7--|
--6--6--6--6--6---8---8--10--|--10--10--10--10--10--10--5--5--|
-----------------------------|---8---8---8---8---8---8--------|


  E  E  E  E  E   E   E   E      E   E   E   E   E   E  E  E   
--6--6--6--6--6---8---8--10--|---8---8---8---8---8---8--5--5--|
--8--8--8--8--8--10--10--12--|---8---8---8---8---8---8--5--5--|
--8--8--8--8--8--10--10--12--|---8---8---8---8---8---8--7--7--|
--8--8--8--8--8--10--10--12--|--10--10--10--10--10--10--7--7--|
--6--6--6--6--6---8---8--10--|--10--10--10--10--10--10--5--5--|
-----------------------------|---8---8---8---8---8---8--------|


  E  E  E  E  E   E   E   E      E   E   E   E   E   E  E  E   
--6--6--6--6--6---8---8--10--|---8---8---8---8---8---8--5--5--|
--8--8--8--8--8--10--10--12--|---8---8---8---8---8---8--5--5--|
--8--8--8--8--8--10--10--12--|---8---8---8---8---8---8--7--7--|
--8--8--8--8--8--10--10--12--|--10--10--10--10--10--10--7--7--|
--6--6--6--6--6---8---8--10--|--10--10--10--10--10--10--5--5--|
-----------------------------|---8---8---8---8---8---8--------|


  E  E  E  E  E   E   E   E      E   E   E   E   E   E  E  E   
--6--6--6--6--6---8---8--10--|---8---8---8---8---8---8--5--5--|
--8--8--8--8--8--10--10--12--|---8---8---8---8---8---8--5--5--|
--8--8--8--8--8--10--10--12--|---8---8---8---8---8---8--7--7--|
--8--8--8--8--8--10--10--12--|--10--10--10--10--10--10--7--7--|
--6--6--6--6--6---8---8--10--|--10--10--10--10--10--10--5--5--|
-----------------------------|---8---8---8---8---8---8--------|


  E  E  E  E  E   E   E   E      E   E   E   E   E   E  E  E   
--6--6--6--6--6---8---8--10--|---8---8---8---8---8---8--5--5--|
--8--8--8--8--8--10--10--12--|---8---8---8---8---8---8--5--5--|
--8--8--8--8--8--10--10--12--|---8---8---8---8---8---8--7--7--|
--8--8--8--8--8--10--10--12--|--10--10--10--10--10--10--7--7--|
--6--6--6--6--6---8---8--10--|--10--10--10--10--10--10--5--5--|
-----------------------------|---8---8---8---8---8---8--------|


  E  E  E  E  E   E   E   E      E   E   E   E   E   E  E  E   
--6--6--6--6--6---8---8--10--|---8---8---8---8---8---8--5--5--|
--8--8--8--8--8--10--10--12--|---8---8---8---8---8---8--5--5--|
--8--8--8--8--8--10--10--12--|---8---8---8---8---8---8--7--7--|
--8--8--8--8--8--10--10--12--|--10--10--10--10--10--10--7--7--|
--6--6--6--6--6---8---8--10--|--10--10--10--10--10--10--5--5--|
-----------------------------|---8---8---8---8---8---8--------|


  E  E  E  E  E   E   E   E      E   E   E   E   E   E  E  E   
--6--6--6--6--6---8---8--10--|---8---8---8---8---8---8--5--5--|
--8--8--8--8--8--10--10--12--|---8---8---8---8---8---8--5--5--|
--8--8--8--8--8--10--10--12--|---8---8---8---8---8---8--7--7--|
--8--8--8--8--8--10--10--12--|--10--10--10--10--10--10--7--7--|
--6--6--6--6--6---8---8--10--|--10--10--10--10--10--10--5--5--|
-----------------------------|---8---8---8---8---8---8--------|


                                 PM  PM  PM  PM  PM  PM PM PM  
  E  E  E  E  E   E   E   E      E   E   E   E   E   E  E  E   
--6--6--6--6--6---8---8--10--|---8---8---8---8---8---8--5--5--|
--8--8--8--8--8--10--10--12--|---8---8---8---8---8---8--5--5--|
--8--8--8--8--8--10--10--12--|---8---8---8---8---8---8--7--7--|
--8--8--8--8--8--10--10--12--|--10--10--10--10--10--10--7--7--|
--6--6--6--6--6---8---8--10--|--10--10--10--10--10--10--5--5--|
-----------------------------|---8---8---8---8---8---8--------|


  PM PM PM PM PM  PM  PM  PM     PM  PM  PM  PM  PM  PM PM PM  
  E  E  E  E  E   E   E   E      E   E   E   E   E   E  E  E   
--6--6--6--6--6---8---8--10--|---8---8---8---8---8---8--5--5--|
--8--8--8--8--8--10--10--12--|---8---8---8---8---8---8--5--5--|
--8--8--8--8--8--10--10--12--|---8---8---8---8---8---8--7--7--|
--8--8--8--8--8--10--10--12--|--10--10--10--10--10--10--7--7--|
--6--6--6--6--6---8---8--10--|--10--10--10--10--10--10--5--5--|
-----------------------------|---8---8---8---8---8---8--------|


  PM PM PM PM PM  PM  PM  PM                                   
  E  E  E  E  E   E   E   E      E   E   E   E   E   E  E  E   
--6--6--6--6--6---8---8--10--|---8---8---8---8---8---8--5--5--|
--8--8--8--8--8--10--10--12--|---8---8---8---8---8---8--5--5--|
--8--8--8--8--8--10--10--12--|---8---8---8---8---8---8--7--7--|
--8--8--8--8--8--10--10--12--|--10--10--10--10--10--10--7--7--|
--6--6--6--6--6---8---8--10--|--10--10--10--10--10--10--5--5--|
-----------------------------|---8---8---8---8---8---8--------|


  E  E  E  E  E   E   E   E      E   E   E   E   E   E  E  E   
--6--6--6--6--6---8---8--10--|---8---8---8---8---8---8--5--5--|
--8--8--8--8--8--10--10--12--|---8---8---8---8---8---8--5--5--|
--8--8--8--8--8--10--10--12--|---8---8---8---8---8---8--7--7--|
--8--8--8--8--8--10--10--12--|--10--10--10--10--10--10--7--7--|
--6--6--6--6--6---8---8--10--|--10--10--10--10--10--10--5--5--|
-----------------------------|---8---8---8---8---8---8--------|


  E  E  E  E  E   E   E   E      E   E   E   E   E   E  E  E   
--6--6--6--6--6---8---8--10--|---8---8---8---8---8---8--5--5--|
--8--8--8--8--8--10--10--12--|---8---8---8---8---8---8--5--5--|
--8--8--8--8--8--10--10--12--|---8---8---8---8---8---8--7--7--|
--8--8--8--8--8--10--10--12--|--10--10--10--10--10--10--7--7--|
--6--6--6--6--6---8---8--10--|--10--10--10--10--10--10--5--5--|
-----------------------------|---8---8---8---8---8---8--------|


  E  E  E  E  E   E   E   E      E   E   E   E   E   E  E  E   
--6--6--6--6--6---8---8--10--|---8---8---8---8---8---8--5--5--|
--8--8--8--8--8--10--10--12--|---8---8---8---8---8---8--5--5--|
--8--8--8--8--8--10--10--12--|---8---8---8---8---8---8--7--7--|
--8--8--8--8--8--10--10--12--|--10--10--10--10--10--10--7--7--|
--6--6--6--6--6---8---8--10--|--10--10--10--10--10--10--5--5--|
-----------------------------|---8---8---8---8---8---8--------|


  E  E  E  E  E   E   E   E      E   E   E   E   E   E  E  E   
--6--6--6--6--6---8---8--10--|---8---8---8---8---8---8--5--5--|
--8--8--8--8--8--10--10--12--|---8---8---8---8---8---8--5--5--|
--8--8--8--8--8--10--10--12--|---8---8---8---8---8---8--7--7--|
--8--8--8--8--8--10--10--12--|--10--10--10--10--10--10--7--7--|
--6--6--6--6--6---8---8--10--|--10--10--10--10--10--10--5--5--|
-----------------------------|---8---8---8---8---8---8--------|


  E  E  E  E  E   E   E   E      E   E   E   E   E   E  E  E   
--6--6--6--6--6---8---8--10--|---8---8---8---8---8---8--5--5--|
--8--8--8--8--8--10--10--12--|---8---8---8---8---8---8--5--5--|
--8--8--8--8--8--10--10--12--|---8---8---8---8---8---8--7--7--|
--8--8--8--8--8--10--10--12--|--10--10--10--10--10--10--7--7--|
--6--6--6--6--6---8---8--10--|--10--10--10--10--10--10--5--5--|
-----------------------------|---8---8---8---8---8---8--------|


  E  E  E  E  E   E   E   E      E   E   E   E   E   E  E  E   
--6--6--6--6--6---8---8--10--|---8---8---8---8---8---8--5--5--|
--8--8--8--8--8--10--10--12--|---8---8---8---8---8---8--5--5--|
--8--8--8--8--8--10--10--12--|---8---8---8---8---8---8--7--7--|
--8--8--8--8--8--10--10--12--|--10--10--10--10--10--10--7--7--|
--6--6--6--6--6---8---8--10--|--10--10--10--10--10--10--5--5--|
-----------------------------|---8---8---8---8---8---8--------|


  E  E  E  E  E   E   E   E      E   E   E   E   E   E  E  E   
--6--6--6--6--6---8---8--10--|---8---8---8---8---8---8--5--5--|
--8--8--8--8--8--10--10--12--|---8---8---8---8---8---8--5--5--|
--8--8--8--8--8--10--10--12--|---8---8---8---8---8---8--7--7--|
--8--8--8--8--8--10--10--12--|--10--10--10--10--10--10--7--7--|
--6--6--6--6--6---8---8--10--|--10--10--10--10--10--10--5--5--|
-----------------------------|---8---8---8---8---8---8--------|


  E  E  E  E  E   E   E   E      W                  
--6--6--6--6--6---8---8--10--|---8----------------||
--8--8--8--8--8--10--10--12--|---8----------------||
--8--8--8--8--8--10--10--12--|---8----------------||
--8--8--8--8--8--10--10--12--|--10----------------||
--6--6--6--6--6---8---8--10--|--10----------------||
-----------------------------|---8----------------||




Duration Legend
---------------
W - whole
H - half
Q - quarter
E - 8th
S - 16th
T - 32nd
X - 64th
. - note dotted
|-n-|  - n-tuplets
Добавлено: 14.04.2012
Другие материалы по этой песне:

Страница создана 29.02.2012
http://primanota.ru/clues/ledmonton-chords.htm
Привет, Гость.
Предлагаем пройти революционный курс по гитаре.
Подарок от PrimaNota.Ru, забирай!