PrimaNota.ru - самый крупный в мире бесплатный архив песенных текстов, аккордов, табулатур и нот


Clowns - Euthanise Me - таба, видео

Регистрация Запомнить меня
Войти через:  Facebook Google Twitter Vk Yandex Mail.ru

Clowns - Euthanise Me - таба, видео

Печатать
Просмотров: 83
-------------------------------------------------------------------------------
                             EUTHANISE ME - Clowns
-------------------------------------------------------------------------------

Intro/Verse 1
e|--------------------------|
B|--------------------------|
G|--------------------------|
D|-6-6-6-6-6-6-6-6-6-6-11-9-|
A|-6-6-6-6-6-6-6-6-6-6-11-9-|
E|-6-6-6-6-6-6-6-6-6-6-11-9-| x8

Chorus
e|-------|    |------|
B|-------|    |------|
G|-------|    |------|
D|-2-4-6-|    |-9-11-|
A|-2-4-6-|    |-9-11-|
E|-2-4-6-| x4 |-9-11-|
Strumming pattern is different first two times to second two times. Easy enough to work out though.

Verse 2
e|------------------------------|
B|------------------------------|
G|---------------------11-11-11-|
D|-6-6-6-6-6-6-6-6-6-6-11-11-11-|
A|-6-6-6-6-6-6-6-6-6-6-9--9--9--|
E|-6-6-6-6-6-6-6-6-6-6----------| x8
Verse 2 is also verse 3

Bridge 
e|------------------------------------------------|
B|------------------------------------------------|
G|------------------------------------------------|
D|-9-9-9-9-9-9-9-9-9-9-6-9-9-9-9-9-9-9-9-9-9-11-6-|
A|-9-9-9-9-9-9-9-9-9-9-6-9-9-9-9-9-9-9-9-9-9-11-6-|
E|-9-9-9-9-9-9-9-9-9-9-6-9-9-9-9-9-9-9-9-9-9-11-6-|

e|--------------------------------------------------------------------------------------------------|
B|--------------------------------------------------------------------------------------------------|
G|--------------------------------------------------------------------------------------------------|
D|9-9-9-9-9-9-9-9-9-9-6-11-11-11-11-11-11-11-11-11-11-11-11-11-11-11-9-9-6-6-6-9-9-6-6-6-9-9-6-6-6-9|
A|9-9-9-9-9-9-9-9-9-9-6-11-11-11-11-11-11-11-11-11-11-11-11-11-11-11-9-9-6-6-6-9-9-6-6-6-9-9-6-6-6-9|
E|9-9-9-9-9-9-9-9-9-9-6-11-11-11-11-11-11-11-11-11-11-11-11-11-11-11-9-9-6-6-6-9-9-6-6-6-9-9-6-6-6-9|

e|--------|    |------------|
B|--------|    |------------|
G|--------|    |---------11-|
D|-9-11-6-|    |-9--11-6-11-|
A|-9-11-6-|    |-9--11-6-9--|
E|-9-11-6-| x5 |-9--11-6----| x2 
                Strumming pattern not noted. Easy enough to work out.
e|---------------------------------------------------------------------------|
B|---------------------------------------------------------------------------|
G|---------------------------------------------------------------------------|
D|-6-6-6-6-6-----------------------------------------------------------------|
A|-6-6-6-6-6-----------------------------------------------------------------|
E|-6-6-6-6-6-----------------------------------------------------------------|
Whole lot of those for a few bars basically.

Outro
e|-------------------------------------------------------|
B|-------------------------------------------------------|
G|-------------------------------------------------------|
D|-4-4-4-6-6-6-6-6-6-6-6-6-6-6-6-4-4-4-6-6-6-6-6-6-6-6-6-|
A|-4-4-4-6-6-6-6-6-6-6-6-6-6-6-6-4-4-4-6-6-6-6-6-6-6-6-6-|
E|-4-4-4-6-6-6-6-6-6-6-6-6-6-6-6-4-4-4-6-6-6-6-6-6-6-6-6-|

That's the whole song.
Добавлено: 30.10.2015
Другие материалы по этой песне:
  • Аккорды и текст

Страница создана 30.10.2015
http://primanota.ru/clowns/euthanise-me-chords.htm
Привет, Гость.
Предлагаем пройти революционный курс по гитаре.
Подарок от PrimaNota.Ru, забирай!