PrimaNota.ru - самый крупный в мире бесплатный архив песенных текстов, аккордов, табулатур и нот


Clownhead - Direnis - бас-таба, видео

Регистрация Запомнить меня
Войти через:  Facebook Google Twitter Vk Yandex Mail.ru

Clownhead - Direnis - бас-таба, видео

Печатать
Просмотров: 68
Уроки эстрадного вокала в Санкт-Петербурге
Verse:

F|--------------------------------------------------------------------|
C|--------------------------------------------------------------------|
G|--------------------5--2--------------------------------------------|
D|--2--x-5--x-x--5----------------------------------------------------|
                                                                         (x8)
F|--------------------------------------------------------------------|
C|--------------------------------------------------------------------|
G|--------------------7--8--------------------------------------------|
D|--2--x-5--x-x--5----------------------------------------------------|

Chorus:

F|--------------------------------------------------------------------|
C|--------------------------------------------------------------------|
G|----------5-------4--------3----------------------------------------|  (x2)
D|---6-5-6-----5-4-----3--2-----2--1----1--1--------------------------|

Solo:

F|--------------------------------------------------------------------|
C|--------------------------------------------------------------------|
G|------------------------------2---x-2-x-x-2--3----------------------|  (x4)
D|----5---x-5-x-x-5--6------------------------------------------------|
Добавлено: 09.11.2013
Другие материалы по этой песне:
  • Аккорды и текст

Страница создана 09.11.2013
http://primanota.ru/clownhead/direnis-chords.htm
Привет, Гость.
Предлагаем пройти революционный курс по гитаре.
Подарок от PrimaNota.Ru, забирай!