PrimaNota.ru - самый крупный в мире бесплатный архив песенных текстов, аккордов, табулатур и нот


Cloudkicker - Viceroy - таба, видео

Регистрация Запомнить меня
Войти через:  Facebook Google Twitter Vk Yandex Mail.ru

Cloudkicker - Viceroy - таба, видео

Печатать
Просмотров: 187
tuning is B, F#, B, E, G#, C#

------------------------------|------------------------------||---------------|
------------------------------|------------------------------||---------------|
------------------------------|------------------------------||---------------|
---7---7---7-----7---7-----10-|---7---7---7-----7---7-----8--||---------------|
-5-5-5-5-5-5-5-5-5-5-5-5-8-8--|-5-5-5-5-5-5-5-5-5-5-5-5-8-8--||---------------|
-0---0---0---0-5---5---5-8----|-0---0---0---0-5-5-5-5-5-8----||---------------|


------------------------------|----------------------------||-----------------|
------------------------------|----------------------------||-----------------|
------------------------------|----------------------------||-----------------|
---5h7----7-------10----7-----|---5h7----7-------5----5----||-----------------|
-------5^-----------------5\3-|-------5^-------------------||-----------------|
-0----------5^-8^----3^-------|-0----------5^-3^---2^---2^-||-----------------|


--------------------------|---------------------------||----------------------|
---5h6---5------8---------|---5h6---5-----------------||----------------------|
--------------------9-----|---------------------------||----------------------|
-------7------------------|-------7---------7----2----||----------------------|
--------------5---8---5/3-|-------------------3^---3^-||----------------------|
-0---------8^-------------|-0---------8^-7^-----------||----------------------|


----------------------------|------------------------------||-----------------|
----------------------------|------------------------------||-----------------|
---0----0----0-----0-----0--|---0----0----0-----0------0---||-----------------|
----7----7----8-----7-----7-|----7----7--------------------||-----------------|
----------------------------|--------------8-----10-----10-||-----------------|
-0----5----8----10----10----|-0----5----8----10-----10-----||-----------------|




-------------------------------||-------------------------------------||------|
-------------------------------||-------------------------------------||------|
-------------------------------||-------------------------------------||------|
-------------------------------||-------------------------------------||------|
---5-------------5-----5-----5-||-----5---------5---------5-----5-----||------|
-0---0-0-0--0--0---0-0---0-0---||-000---0-0-000---0-0-000---000---0-0-||------|


the "fast double bass" part is just me playing an open B chord really messy,
just mess around during that part.

------------------------------------------------------------------------------|
------------------------------------------------------------------------------|
------------------------------------------------------------------------------|
-0----------------------------------------------------------------------------|
-0----------------------------------------------------------------------------|
-0----------------------------------------------------------------------------|

Directly from Ben, thought I'd share. ENJOY!
Добавлено: 24.07.2012
Другие материалы по этой песне:
  • Аккорды и текст

Страница создана 24.07.2012
http://primanota.ru/cloudkicker/viceroy-chords.htm
Привет, Гость.
Предлагаем пройти революционный курс по гитаре.
Подарок от PrimaNota.Ru, забирай!