PrimaNota.ru - самый крупный в мире бесплатный архив песенных текстов, аккордов, табулатур и нот


Cloudkicker - Parliament - таба, видео

Регистрация Запомнить меня
Войти через:  Facebook Google Twitter Vk Yandex Mail.ru

Cloudkicker - Parliament - таба, видео

Печатать
Просмотров: 77
-------------------------------------------------------------------------------
                             Parliament - Cloudkicker
-------------------------------------------------------------------------------
Tabbed by: Knox Mazzara
E-mail: blackhawk2801@yahoo.com

Tuning: Drop C
Effects: Delay 

Not 100% on the opening chord
D|---------------------------------------------------------------------------|
A|---------------------------------------------------------------------------|
F|---8-----------------------------------------------------------------------|
C|---7-----------------------------------------------------------------------|
G|---7-----------------------------------------------------------------------|
C|---7-----------------------------------------------------------------------|

D|--------------------------------------------9-------11---------------------|
A|---7-------9------------12\11-------7\4------------------------------------|
F|---------------------------------------------------------------------------|
C|---------------------------------------------------------------------------|
G|---------------------------------------------------------------------------|
C|---------------------------------------------------------------------------|

D|--------------------------------------------9-------11---------------------|
A|---7-------9------------12\11-------7\4------------------------------------|
F|-------8--------------------------------------------------------------------|
C|---------------------------------------------------------------------------|
G|---------------------------------------------------------------------------|
C|---------------------------------------------------------------------------|



************************************

\   slide down

************************************
Добавлено: 20.07.2015
Вам также может быть интересно:
Другие материалы по этой песне:
  • Аккорды и текст

Страница создана 20.07.2015
http://primanota.ru/cloudkicker/parliament-chords.htm
Привет, Гость.
Предлагаем пройти революционный курс по гитаре.
Подарок от PrimaNota.Ru, забирай!