PrimaNota.ru - самый крупный в мире бесплатный архив песенных текстов, аккордов, табулатур и нот


Cloudkicker - Dysphoria - таба, видео

Регистрация Запомнить меня
Войти через:  Facebook Google Twitter Vk Yandex Mail.ru

Cloudkicker - Dysphoria - таба, видео

Печатать
Просмотров: 180
x = palm mute, ^ = bend, / = slide up, \ = slide down

tuning = B f# b e g# c#

here are the lead guitar parts.


intro riff (a):

------------------------------------------------------------------------------|
------------------------------------------------------------------------------|
------------------------------------------------------------------------------|
------------------------------------------------------------------------------|
------------------------------------------------------------------------------|
-0--0--12-10-12\-0--0--0--0-0-8^-8^--0-0-7--3--0-0-8--5-8-5-8--7--3-----------|
                          x x        x x       x x

(b):

----------------------------------------------------------------------||------|
----------------------------------------------------------------------||------|
----------------------------------------------------------------------||------|
----------------------------------------------------------------------||------|
-----------------------------------------------------------------10---||------|
-0--0--12-10-12\-0--0--0--0-0-8^-7^--0-0-7--3--0-0-5--0-5-0-5--8------||------|
                          x x        x x       x x


when the china comes in, play this
the first half of the (b) riff:

----------------------------|
----------------------------|
----------------------------|
----------------------12----|
--------------------8-------|
-0--0--12-10-12\-0-------0--|

the next part after the drum fill is in 13/8
(snare and crash still do 4/4 on top, however).
* would be where the downbeat hits the first time around
(this is my rough way of indicating rhythym in tab form)

-----------------------------------------------------||-----------------------|
-----------------------------------------------------||-----------------------|
-----------------------------------------------------||-----------------------|
-----------------------------------------------------||-----------------------|
-*-------*-------*-------*-------*-------*-------*---||-----------------------|
-0---0-0-0-0-0-0---0-0---0-0-0-0-0-0-0-0---0-0---0-0-||-----------------------|


the last couple times this starts playing over the above pattern:

---------------------10-||
---8---9-10---8---10----||
-7---7------7---7-------||
------------------------||
------------------------||
------------------------||


the breakdown part after is three bars of an 11/16 pattern
followed by one bar of a 7/16 pattern.  if you look at the main (11/16)
pattern in terms of individual 16th notes, there would be 7 open B hits,
followed by 4 "hits" of silence...if that makes sense.

----------------------|--------------------||
----------------------|--------------------||
----------------------|--------------------||
----------------------|--------------------||
----------------------|--------------------||
-0-0-0-0-0-0-0--------|--0-0-0-0-0-0-0-8-3-||
                         ^^play this the last time,
                           into the next part.

chords for the drum fill part:

---------------||--------------||
---------------||--------------||
---------------||--------------||
-7--7----7--7--||-8--8---5--5--||
-5--5----5--5--||-8--8---5--5--||
-0--0----0--0--||-8--8---5--5--||


the next part is an 18/4 pattern, the "x"s are meant to represent
the approximate rhythym and placement of the individual hits.
chord changes happen roughly at every |, but listen to the recording
for exact placement.

--------------------|--------------------||-----------------------------------|
--------------------|--------------------||-----------------------------------|
--------------------|--------------------||-----------------------------------|
--------------------|--------------------||-7--8--5-------7--10--7------------|
--------------------|--------------------||-5--8--5-------5--8---5------------|
-x-x---x-x---x-x--x-|-x-x--x-x--x-x--x-x-||-0--8--5-------0--8---5------------|
                                            ^^these       ^^these about
                                            chords at     halfway through
                                            first

after that part finishes it's right back to the original intro riff,
the only difference is that this part gets thrown in right in the middle.

-----------|------------------------------------------------------------------|
-----------|------------------------------------------------------------------|
-----------|------------------------------------------------------------------|
-----------|-----10-----------------------------------------------------------|
----8------|------------------------------------------------------------------|
-/8---8\---|--/8----8\--------------------------------------------------------|
 guitar L  |  guitar R


This is Directly from Ben, figured is share it with all the Cloudkicker fans out
there than keep it to myself. Enjoy!
Добавлено: 16.03.2012
Другие материалы по этой песне:

Страница создана 16.03.2012
http://primanota.ru/cloudkicker/dysphoria-chords.htm
Привет, Гость.
Предлагаем пройти революционный курс по гитаре.
Подарок от PrimaNota.Ru, забирай!