PrimaNota.ru - самый крупный в мире бесплатный архив песенных текстов, аккордов, табулатур и нот


Cloud Nothings - Ooh You - таба, видео

Регистрация Запомнить меня
Войти через:  Facebook Google Twitter Vk Yandex Mail.ru

Cloud Nothings - Ooh You - таба, видео

Печатать
Просмотров: 72
------------------------|
-------5--------5--3----|
-3--4-----3--4--------4-|
------------------------|
------------------------|
------------------------| x4

Then power chords come in.

Em - G - C - G


Em      G           C          G
I was a man and but you were a wolf...

We met one day in the woods

You said it wouldn't be easy

You said you wouldn't work out


(Palm muted)
------------------------------------------------|
------------------------------------------------|
------------------------------------------------|
------------------------------------------------|
------------------------------------------------|
-5--5--5--5--5--5--5--5--0--0--0--0--3--3--3--3-|


CHORUS

Melody:
Oo-oo--ooo oh oo-oo--oo--oh

---------------------|
---------------------|
---------------------|
---------------------|
-2--0--------2--0----|
------3-0--0-------3-|


Chords:

Am -- Em - G

------------------------|
-------5--------5--3----|
-3--4-----3--4--------4-|
------------------------|
------------------------|
------------------------| x4

Bass comes in with an E

I have no idea what the lyrics of this verse are. The same verse, bridge and chorus 
repeat to finish
the song, playing the intro riff over the chorus at the end.
Добавлено: 21.12.2015
Вам также может быть интересно:
Другие материалы по этой песне:
  • Аккорды и текст

Страница создана 21.12.2015
http://primanota.ru/cloud-nothings/ooh-you-chords.htm
Привет, Гость.
Предлагаем пройти революционный курс по гитаре.
Подарок от PrimaNota.Ru, забирай!