PrimaNota.ru - самый крупный в мире бесплатный архив песенных текстов, аккордов, табулатур и нот


Cloud Nothings - Now Hear In - таба, видео

Регистрация Запомнить меня
Войти через:  Facebook Google Twitter Vk Yandex Mail.ru

Cloud Nothings - Now Hear In - таба, видео

Печатать
Просмотров: 42
Авторы музыки: Dylan Baldi, Jayson Gerycz
Авторы текста: Dylan Baldi, Jayson Gerycz
-------------------------------------------------------------------------------
                             CLOUD NOTHINGS - Now Hear In
-------------------------------------------------------------------------------
Tabbed by: Hallvard97
E-mail: ths@live.no

This my interpretation of Now Hear In on one guitar. Beware of strange tuning! Not the 
normal Drop C.

Tuning: C-A-D-F-B-d

INTRO/FIRST VERSE

d|--x--x-x--x-x--x--x-x--x-x--x--x-x--x-x--xxx-x-x-x-x-x-x-x--|
B|--x--x-x--x-x--x--x-x--x-x--x--x-x--x-x--xxx-x-x-x-x-x-x-x--|
F|--2--2-2--2-2--2--2-2--2-2--x--x-x--x-x--222-2-2-2-2-2-2-2--|
D|--5--5-2--2-5--5--5-2--2-5--9--9-9--9-9--555-5-5-5-5-5-5-5--| X6
A|--3--3-3--3-3--2--2-2--2-2--5--5-5--5-5--333-3-3-3-3-3-3-3--|
C|--0--0-0--0-0--4--4-4--4-4--7--7-7--7-7--000-0-0-0-0-0-0-0--|

PRE-CHORUS

d|--x-x-x-x-x-x-x-x-x-x-x-x-x-x-x-x-x-x-x-x-x-x-x-x-x-x-x-x-x-x-x-x--|
B|--x-x-x-x-x-x-x-x-x-x-x-x-x-x-x-x-x-x-x-x-x-x-x-x-x-x-x-x-x-x-x-x--|
F|--2-2-2-2-2-2-2-2-2-2-2-2-2-2-2-2-2-2-2-2-2-2-2-2-2-2-2-2-2-2-2-2--|
D|--5-5-5-5-4-4-4-4-2-2-2-2-5-5-5-5-5-5-5-5-5-5-5-5-5-5-5-5-5-5-5-5--| X 2
A|--2-2-2-2-2-2-2-2-2-2-2-2-2-2-2-2-3-3-3-3-3-3-3-3-3-3-3-3-3-3-3-3--|
C|--4-4-4-4-4-4-4-4-4-4-4-4-4-4-4-4-0-0-0-0-0-0-0-0-0-0-0-0-0-0-0-0--|


d|--x-x-x-x-x-x-x-x-x-x-x-x-2-2-2-2-2-2-2-2-2-2-2-2-2-2-2-2-2-2-2-2--|
B|--x-x-x-x-x-x-x-x-x-x-x-x-3-3-3-3-3-3-3-3-3-3-3-3-3-3-3-3-3-3-3-3--|
F|--2-2-2-2-4-4-4-4-6-6-6-6-2-2-2-2-2-2-2-2-2-2-2-2-2-2-2-2-2-2-2-2--|
D|--5-5-5-5-4-4-4-4-2-2-2-2-2-2-2-2-2-2-2-2-2-2-2-2-2-2-2-2-2-2-2-2--| X 2
A|--2-2-2-2-2-2-2-2-2-2-2-2-2-2-2-2-3-3-3-3-3-3-3-3-3-3-3-3-3-3-3-3--|
C|--4-4-4-4-4-4-4-4-4-4-4-4-4-4-4-4-0-0-0-0-0-0-0-0-0-0-0-0-0-0-0-0--|

CHORUS

d|--x---x---x---x---x---x---x---x------------------------------------|
B|--x---x---x---x---x---x---x---x---0---0---0---0---3---3---0---0----|
F|--14--14--14--14--13--13--13--13--2---2---2---2---2---2---2---2----|
D|--x---x---x---x---x---x---x---x---2---2---2---2---2---2---2---2----| X 2
A|--10--10--10--10--10--10--10--10--3---3---3---3---3---3---3---3----|
C|--x---x---x---x---x---x---x---x---0---0---0---0---0---0---0---0----|

d|-------------------------------------------------------------------|
B|----------------------------------0---0---0---0---3---3---0---0----|
F|--2-2-2-2-2-2-2-2-1-1-1-1-1-1-1-1-2---2---2---2---2---2---2---2----|
D|--2-2-2-2-2-2-2-2-0-0-0-0-0-0-0-0-2---2---2---2---2---2---2---2----| X 2
A|--2-2-2-2-2-2-2-2-0-0-0-0-0-0-0-0-3---3---3---3---3---3---3---3----|
C|--4-4-4-4-4-4-4-4-2-2-2-2-2-2-2-2-0---0---0---0---0---0---0---0----|


SHORT TRANSITION TO VERSE

d|--0-0-0-0-0-0-0-0-0-0-0-0-0-0-0-0-0-0-0-0-0-0-0-0-0-0-0-0-0-0-0-0---|
B|--7-7-7-7-7-7-7-7-7-7-7-7-7-7-7-7-0-0-0-0-0-0-0-0-0-0-0-0-0-0-0-0---|
F|--6-6-6-6-6-6-6-6-6-6-6-6-6-6-6-6-6-6-6-6-6-6-6-6-6-6-6-6-6-6-6-6---|
D|--5-5-5-5-5-5-5-5-5-5-5-5-5-5-5-5-5-5-5-5-5-5-5-5-5-5-5-5-5-5-5-5---|
A|--x-x-x-x-x-x-x-x-x-x-x-x-x-x-x-x-x-x-x-x-x-x-x-x-x-x-x-x-x-x-x-x---|
C|--4-4-4-4-4-4-4-4-4-4-4-4-4-4-4-4-4-4-4-4-4-4-4-4-4-4-4-4-4-4-4-4---|

SECOND VERSE

d|--0--0--0-0-0--0--0--0-0-0--0--0--0-0-0--0-0-0-0-0-0-0-0---|
B|--0--0--0-0-0--0--0--0-0-0--0--0--0-0-0--0-0-0-0-0-0-0-0---|
F|--6--6--6-7-6--6--6--6-7-6--6--6--6-6-6--6-6-6-6-6-6-6-6---|
D|--5--5--5-5-5--5--5--5-5-5--5--5--5-5-5--5-5-5-5-5-5-5-5---| X 6
A|--3--3--3-3-3--x--x--x-x-x--5--5--5-5-5--3-3-3-3-3-3-3-3---|
C|--0--0--0-0-0--4--4--4-4-4--7--7--7-7-7--0-0-0-0-0-0-0-0---|

PRE-CHORUS

Just bass, drums and vocals for a while, then:

d|--x-x-x-x-x-x-x-x-x-x-x-x-2-2-2-2-2-2-2-2-2-2-2-2-2-2-2-2-2-2-2-2--|
B|--x-x-x-x-x-x-x-x-x-x-x-x-3-3-3-3-3-3-3-3-3-3-3-3-3-3-3-3-3-3-3-3--|
F|--2-2-2-2-4-4-4-4-6-6-6-6-2-2-2-2-2-2-2-2-2-2-2-2-2-2-2-2-2-2-2-2--|
D|--5-5-5-5-4-4-4-4-2-2-2-2-2-2-2-2-2-2-2-2-2-2-2-2-2-2-2-2-2-2-2-2--| X 2
A|--2-2-2-2-2-2-2-2-2-2-2-2-2-2-2-2-3-3-3-3-3-3-3-3-3-3-3-3-3-3-3-3--|
C|--4-4-4-4-4-4-4-4-4-4-4-4-4-4-4-4-0-0-0-0-0-0-0-0-0-0-0-0-0-0-0-0--|


CHORUS

d|--x---x---x---x---x---x---x---x------------------------------------|
B|--x---x---x---x---x---x---x---x---0---0---0---0---3---3---0---0----|
F|--14--14--14--14--13--13--13--13--2---2---2---2---2---2---2---2----|
D|--x---x---x---x---x---x---x---x---2---2---2---2---2---2---2---2----| X 2
A|--10--10--10--10--10--10--10--10--3---3---3---3---3---3---3---3----|
C|--x---x---x---x---x---x---x---x---0---0---0---0---0---0---0---0----|

d|-------------------------------------------------------------------|
B|----------------------------------0---0---0---0---3---3---0---0----|
F|--2-2-2-2-2-2-2-2-1-1-1-1-1-1-1-1-2---2---2---2---2---2---2---2----|
D|--2-2-2-2-2-2-2-2-0-0-0-0-0-0-0-0-2---2---2---2---2---2---2---2----| X 2
A|--2-2-2-2-2-2-2-2-0-0-0-0-0-0-0-0-3---3---3---3---3---3---3---3----|
C|--4-4-4-4-4-4-4-4-2-2-2-2-2-2-2-2-0---0---0---0---0---0---0---0----|

LONG TRANSITION

d|--0-0-0-0-0-0-0-0-0-0-0-0-0-0-0-0-0-0-0-0-0-0-0-0-0-0-0-0-0-0-0-0---|
B|--7-7-7-7-7-7-7-7-7-7-7-7-7-7-7-7-0-0-0-0-0-0-0-0-0-0-0-0-0-0-0-0---|
F|--6-6-6-6-6-6-6-6-6-6-6-6-6-6-6-6-6-6-6-6-6-6-6-6-6-6-6-6-6-6-6-6---|
D|--5-5-5-5-5-5-5-5-5-5-5-5-5-5-5-5-5-5-5-5-5-5-5-5-5-5-5-5-5-5-5-5---|
A|--7-x-x-x-x-x-x-x-x-x-x-x-x-x-x-x-x-x-x-x-x-x-x-x-x-x-x-x-x-x-x-x---|
C|--4-4-4-4-4-4-4-4-4-4-4-4-4-4-4-4-4-4-4-4-4-4-4-4-4-4-4-4-4-4-4-4---|

d|--0-0-0-0-0-0-0-0-0-0-0-0-0-0-0-0-0-0-0-0-0-0-0-0-0-0-0-0-0-0-0--|
B|--10--10--10--10--10--10--10--10--7---7---7---7---7---7---8---8--|
F|--9---9---9---9---9---9---9---9---9---9---9---9---9---9---9---9--|
D|--0---0---0---0---0---0---0---0---0---0---0---0---0---0---0---0--|
A|-----------------------------------------------------------------|
C|-----------------------------------------------------------------|

d|--0-0-0-0-0-0-0-0-0-0-0-0-0-0-0-0-0-0-0-0-0-0-0-0-17-17-17-17-17-17-17-17--|
B|--10--10--10--10--12--12--12--12--15--15--15--15--15-15-15-15-15-15-15-15--|
F|--9---9---9---9---9---9---9---9---13--13--13--13--13-13-13-13-13-13-13-13--|
D|--0---0---0---0---0---0---0---0---0---0---0---0---0--0--0--0--0--0--0--0---|
A|---------------------------------------------------------------------------|
C|---------------------------------------------------------------------------|

d|--17-17-17-17-17-17-17-17-16-16-16-16-16-16-16-16-16-16-16-16-16-16-16-16--|
B|--15-15-15-15-15-15-15-15-15-15-15-15-15-15-15-15-15-15-15-15-15-15-15-15--|
F|--13-13-13-13-13-13-13-13-13-13-13-13-13-13-13-13-13-13-13-13-13-13-13-13--|
D|--0--0--0--0--0--0--0--0--0--0--0--0--0--0--0--0--0--0--0--0--0--0--0--0---|
A|---------------------------------------------------------------------------|
C|---------------------------------------------------------------------------|

d|--16-16-16-16-16-16-16-16-16-16-16-16-16-16-16-16-16-16-16-16-16-16-16-16--|
B|--15-15-15-15-15-15-15-15-15-15-15-15-15-15-15-15-15-15-15-15-15-15-15-15--|
F|--13-13-13-13-13-13-13-13-13-13-13-13-13-13-13-13-13-13-13-13-13-13-13-13--|
D|--0--0--0--0--0--0--0--0--0--0--0--0--0--0--0--0--0--0--0--0--0--0--0--0---|
A|--0--0--0--0--0--0--0--0--0--0--0--0--0--0--0--0--0--0--0--0--0--0--0--0---|
C|--14-14-14-14-14-14-14-14-14-14-14-14-14-14-14-14-14-14-14-14-14-14-14-14--|

CHORUS

d|-----------------------------------------------------------------|
B|----------------------------------0---0---0---0---3---3---0---0--|
F|--2-2-2-2-2-2-2-2-1-1-1-1-1-1-1-1-2---2---2---2---2---2---2---2--|
D|--2-2-2-2-2-2-2-2-0-0-0-0-0-0-0-0-2---2---2---2---2---2---2---2--| X 2
A|--2-2-2-2-2-2-2-2-0-0-0-0-0-0-0-0-3---3---3---3---3---3---3---3--|
C|--4-4-4-4-4-4-4-4-2-2-2-2-2-2-2-2-0---0---0---0---0---0---0---0--|

d|--4--|
B|--7--|
F|--6--|
D|--4--|
A|--7--|
C|--4--| 
 

************************************

| /   slide up
| \   slide down
| h   hammer-on
| p   pull-off
| ~   vibrato
| +   harmonic
| x   Mute note
| b   Bend
| pb  Pre-bend
| br  Bend release
| pbr Pre-bend release
| brb Bend release bend

************************************
Добавлено: 21.06.2016
Другие материалы по этой песне:
  • Аккорды и текст

Страница создана 21.06.2016
http://primanota.ru/cloud-nothings/now-hear-in-chords.htm
Привет, Гость.
Предлагаем пройти революционный курс по гитаре.
Подарок от PrimaNota.Ru, забирай!