PrimaNota.ru - самый крупный в мире бесплатный архив песенных текстов, аккордов, табулатур и нот


Cloud Nothings - Im Not Part Of Me - аккорды и текст, таба, видео

Регистрация Запомнить меня
Войти через:  Facebook Google Twitter Vk Yandex Mail.ru

Cloud Nothings - Im Not Part Of Me - аккорды и текст, таба, видео

Печатать
Просмотров: 144
Уроки эстрадного вокала в Санкт-Петербурге
Авторы музыки: Dylan Baldi, Jayson Gerycz
Авторы текста: Dylan Baldi, Jayson Gerycz
Im Not Part Of Me
Cloud Nothings
-------------------------------------------------------------------------------
                        I'M NOT PART OF ME - Cloud Nothings
-------------------------------------------------------------------------------
Tabbed by: Roy T. (Vaudevillain)
Email: dookie2me@gmail.com

Tuning: Standard (E A G D B E)



CHORDS PLAYED:

   G#5  D#5  C#5  F5  A#5
e|---------------------------|
B|---------------------------|
G|-------8----6---10---------|
D|--6----8----6---10---8-----|
A|--6----6----4---8----8-----|
E|--4------------------6-----|

---


Intro: G#5 D#5 C#5


(VERSE 1:)


G#5                                 D#5      C#5
It starts right now, there's a way I was before
F5                                D#5        C#5
But I can't recall how I was those days anymore
G#5                                 D#5      C#5
Im learning how to be here and nowhere else
F5                        D#5      C#5
How to focus on what I can do myself


(BREAK:)

F5                  D#5
I'm not telling you all I'm going through

     F5          D#5
e|---------------------------|
B|---------------------------|
G|---10-10-12-10-8--8--8--8--| x3
D|---x--x--x--x--x--x--x--x--|
A|---8--8--8--8--6--6--6--6--|
E|---------------------------|

F5   D#5    C#5
I    feel   fine

   F5 D#5 C#5
e|---------------------------------------------------------------|
B|---------------------------------------------------------------|
G|--10-8--6------------------------------------------------------|
D|--x--x--x------------------------------------------------------|
A|--8--6--4------------------------------------------------------|
E|---------------------------------------------------------------|


(VERSE 2:)


G#5                       D#5      C#5
Leave it all to memory of what we did when were young and
F5                        D#5      C#5
Now you could just leave me on my own
G#5                           D#5      C#5
Oh, moving towards a new idea you're not what I really needed
F5                        D#5      C#5
Now you could just leave me on my own


(CHORUS:)

A#5          C#5
But I'm not, I'm not you
G#5                  D#5
You're a part of me, you're a part of me
A#5          C#5
I'm not, I'm not you
G#5                  D#5
You're a part of me, you're a part of me
A#5          C#5
I'm not, I'm not you
G#5                  D#5
You're a part of me, you're a part of me
A#5          C#5
I'm not, I'm not you
G#5                  D#5
You're a part of me, you're a part of me

Then: F5 D#5


(VERSE3:)

G#5                       D#5      C#5
It's over now, there's a way I was before
F5                                D#5        C#5
But I can't recall how I was those days anymore
G#5                                 D#5      C#5
I'm learning how to be here and nowhere else
F5                        D#5      C#5
How to focus on what I can do myself


(BREAK:)

F5                  D#5
I'm not telling you all I'm going through

     F5          D#5
e|---------------------------|
B|---------------------------|
G|---10-10-12-10-8--8--8--8--| x3
D|---x--x--x--x--x--x--x--x--|
A|---8--8--8--8--6--6--6--6--|
E|---------------------------|

F5   D#5    C#5
I    feel   fine

   F5 D#5 C#5
e|---------------------------------------------------------------|
B|---------------------------------------------------------------|
G|--10-8--6------------------------------------------------------|
D|--x--x--x------------------------------------------------------|
A|--8--6--4------------------------------------------------------|
E|---------------------------------------------------------------|


(VERSE4:)


G#5                       D#5      C#5
Leave it all to memory of what we did when were young and
F5                        D#5      C#5
Now you could just leave me on my own
G#5                           D#5      C#5
Oh, moving towards a new idea you're not what I really needed
F5                        D#5      C#5
Now you could just leave me on my own


(CHORUS:)


A#5          C#5
But I'm not, I'm not you
G#5                  D#5
You're a part of me, you're a part of me
A#5          C#5
I'm not, I'm not you
G#5                  D#5
You're a part of me, you're a part of me
A#5          C#5
I'm not, I'm not you
G#5                  D#5
You're a part of me, you're a part of me
A#5          C#5
I'm not, I'm not you
G#5                  D#5
You're a part of me, you're a part of me

End on: 

    F5
e|-------|
B|-------|
G|---10--|
D|---10--|
A|---8---|
E|-------|


---

I hope you've enjoyed my interpretation of this track!

-V
Добавлено: 18.05.2014
Другие материалы по этой песне:
  • Аккорды и текст

Страница создана 18.05.2014
http://primanota.ru/cloud-nothings/im-not-part-of-me-chords.htm
Привет, Гость.
Предлагаем пройти революционный курс по гитаре.
Подарок от PrimaNota.Ru, забирай!