PrimaNota.ru - самый крупный в мире бесплатный архив песенных текстов, аккордов, табулатур и нот


Cloud Nothings - Cant Stay Awake - таба, видео

Регистрация Запомнить меня
Войти через:  Facebook Google Twitter Vk Yandex Mail.ru

Cloud Nothings - Cant Stay Awake - таба, видео

Печатать
Просмотров: 140
awesome tune off turning on, from good ol cloud nothings.

clueless about the lyrics, so i'm just gonna post the tab

-=intro/verse=-

E|--------------0--0--0--0--0--------|
B|--8--8--8--7--5--0--3--5--3--------|
G|--9--7--9--7-----------------4--5--|
D|--------9--7-----------------5--5--|
A|--------7--5-----------------5--3--|
E|-----------------------------3-----|

E|----0--0--0--|
B|----0--7--8--|
G|-------------|
D|-------------|
A|-------------|
E|-------------|

-=chorus=-

E|----------------/7------------------|
B|-------5--3--5--/8-----5--3--8---7--|
G|----4--5--4--5--/9--4--5--4--9---7--|
D|----5--5--4--5------5--5--4--10--7--|
A|----5---------------5---------------|
E|------------------------------------|

-=verse=-

E|--------------0--0--0--0--0--------|
B|--8--8--8--7--5--0--3--5--3--------|
G|--9--7--9--7-----------------4--5--|
D|--------9--7-----------------5--5--|
A|--------7--5-----------------5--3--|
E|-----------------------------3-----|

E|----0--0--0--|
B|----0--7--8--|
G|-------------|
D|-------------|
A|-------------|
E|-------------|

-=chorus=-

E|----------------/7------------------|
B|-------5--3--5--/8-----5--3--8---7--|
G|----4--5--4--5--/9--4--5--4--9---7--|
D|----5--5--4--5------5--5--4--10--7--|
A|----5---------------5---------------|
E|------------------------------------|

-=break=-

just freak out

-=chorus/outro=-

E|----------------/7------------------|
B|-------5--3--5--/8-----5--3--8---7--|
G|----4--5--4--5--/9--4--5--4--9---7--|
D|----5--5--4--5------5--5--4--10--7--|
A|----5---------------5---------------|
E|------------------------------------|
Добавлено: 22.06.2015
Другие материалы по этой песне:
  • Аккорды и текст

Страница создана 22.06.2015
http://primanota.ru/cloud-nothings/cant-stay-awake-chords.htm
Привет, Гость.
Предлагаем пройти революционный курс по гитаре.
Подарок от PrimaNota.Ru, забирай!