PrimaNota.ru - самый крупный в мире бесплатный архив песенных текстов, аккордов, табулатур и нот


Cloud Gavin - Posture - таба, видео

Регистрация Запомнить меня
Войти через:  Facebook Google Twitter Vk Yandex Mail.ru

Cloud Gavin - Posture - таба, видео

Печатать
Просмотров: 91
Уроки эстрадного вокала в Санкт-Петербурге
-------------------------------------------------------------------------------
                             Posture (Intro) - Cloud Gavin
-------------------------------------------------------------------------------
Tabbed by: Denton
E-mail:

Tuning: Half-Step Down

e|--------12----------12----------12----------12-----------------------------|
B|-----13----13----13----13----13----13----13----13--------------------------|
G|--14-----------------------------------------------------------------------|
D|---------------------------------------------------------------------------|
A|---------------------------------------------------------------------------|
E|---------------------------------------------------------------------------|x4

e|--------12----------12----------12----------12-----------------------------|
B|-----13----13----13----13----13----13----13----13--------------------------|
G|---------------------------------------------------------------------------|
D|--15-----------------------------------------------------------------------|
A|---------------------------------------------------------------------------|
E|---------------------------------------------------------------------------|x4

The chords I can hear being played during the rest of the song are variations in strumming patterns of mostly:

e|---------------------------------------------------------------------------|
B|---------------------------------------------------------------------------|
G|---------------------------------------------------------------------------|
D|---5---------10------------------------------------------------------------|
A|---5---------10------------------------------------------------------------|
E|---3---------8-------------------------------------------------------------|

Soloing starts around this area on the guitarL

e|---------------------------------------------------------------------------|
B|---------------------------------------------------------------------------|
G|------------------12-------------------------------------------------------|
D|---------10h12/14----------------------------------------------------------|
A|---10h12-------------------------------------------------------------------|
E|---------------------------------------------------------------------------|



************************************

| /   slide up
| \   slide down
| h   hammer-on
| p   pull-off
| ~   vibrato
| +   harmonic
| x   Mute note
| b   Bend
| pb  Pre-bend
| br  Bend release
| pbr Pre-bend release
| brb Bend release bend

************************************
Добавлено: 10.10.2015
Вам также может быть интересно:
Другие материалы по этой песне:
  • Аккорды и текст

Страница создана 10.10.2015
http://primanota.ru/cloud-gavin/posture-chords.htm
Привет, Гость.
Предлагаем пройти революционный курс по гитаре.
Подарок от PrimaNota.Ru, забирай!