PrimaNota.ru - самый крупный в мире бесплатный архив песенных текстов, аккордов, табулатур и нот


Cloud Gavin - Coda - таба, видео

Регистрация Запомнить меня
Войти через:  Facebook Google Twitter Vk Yandex Mail.ru

Cloud Gavin - Coda - таба, видео

Печатать
Просмотров: 103
-------------------------------------------------------------------------------
                             Coda (Intro) - Cloud Gavin
-------------------------------------------------------------------------------
Tabbed by: Denton
E-mail:

Tuning: Standard

e|----------1---------1---------1-0-1------------1----------1----------1--5-1-------|
B|-------3---------3---------3--------3-------3----------3----------3---------3-----|
G|------------------------0--------------------------------------0------------------|
D|--0----------3-------------------------0------------3-----------------------------|
A|----------------------------------------------------------------------------------|
E|----------------------------------------------------------------------------------|

e|----------1---------1---------1-0-1------------1----------1-----5-----------------|
B|-------3---------3---------3--------3-------3----------3--------6-----------------|
G|------------------------0---------------------------------------7-----------------|
D|--0----------3-------------------------0------------3-----------------------------|
A|----------------------------------------------------------------------------------|
E|----------------------------------------------------------------------------------|

e|----------1---------1---------1-0-1------------1----------1----------1--5-1-------|
B|-------3---------3---------3--------3-------3----------3----------3---------3-----|
G|------------------------0--------------------------------------0------------------|
D|--0----------3-------------------------0------------3-----------------------------|
A|----------------------------------------------------------------------------------|
E|----------------------------------------------------------------------------------|

e|----------1---------1---------1-0-1------------1----------1-----5-----------------|
B|-------3---------3---------3--------3-------3----------3--------6-----------------|
G|------------------------0---------------------------------------7-----------------|
D|--0----------3-------------------------0------------3-----------------------------|
A|----------------------------------------------------------------------------------|
E|----------------------------------------------------------------------------------|



Instead of playing the chord at the 7th fret on the G string, this can be played instead. Although the first
version sounds more correct.

e|--1-------------------------------------------------------------------------------|
B|--3-------------------------------------------------------------------------------|
G|--0-------------------------------------------------------------------------------|
D|----------------------------------------------------------------------------------|
A|----------------------------------------------------------------------------------|
E|----------------------------------------------------------------------------------|


************************************

| /   slide up
| \   slide down
| h   hammer-on
| p   pull-off
| ~   vibrato
| +   harmonic
| x   Mute note
| b   Bend
| pb  Pre-bend
| br  Bend release
| pbr Pre-bend release
| brb Bend release bend

************************************
Добавлено: 10.10.2015
Вам также может быть интересно:
Другие материалы по этой песне:
  • Аккорды и текст

Страница создана 10.10.2015
http://primanota.ru/cloud-gavin/coda-chords.htm
Привет, Гость.
Предлагаем пройти революционный курс по гитаре.
Подарок от PrimaNota.Ru, забирай!