PrimaNota.ru - самый крупный в мире бесплатный архив песенных текстов, аккордов, табулатур и нот


Cloud Control - The Rolling Stones - таба, видео

Регистрация Запомнить меня
Войти через:  Facebook Google Twitter Vk Yandex Mail.ru

Cloud Control - The Rolling Stones - таба, видео

Печатать
Просмотров: 130
Cloud Control - The Rolling Stones


INTRO


e|-----------------|
B|-----------------|
G|-----------------|
D|-----4-----4---1-|  x8
A|-----4-----4---2-|
E|-2-2---2-2---2---|


VERSE 1
   F#  F#maj7                  F#7
Oh I          woke up with the sun
     B  F#
This morning
B                F#
Woke up with the sun
G#m       D#m
Opened my window, oh

- play riff twice - 


VERSE 2
    F#          F#maj7
The sinner, the saint
     F#7               B    F#
It's all coming round again
B             F#
Thrown like a stone
       G#m           D#m
To the bottom of the river

- play riff four times -


CHORUS
A                        F#
 It's no different baby now
    A                        F#
Woo, it's no different baby now


POST-CHORUS

F#

- play riff six times - 


VERSE 3
   F# F#maj7               F#7
Oh I       sat down in the shade
       B    F#
In the afternoon
B               F#
Floating on the moon
       G#m         D#m
Like a boat on the blue, oh

- play riff twice -


VERSE 4
    F#         F#maj7
The ferry, the clue
     F#7                 B    F#
It's all coming round so soon
B             F#
Living like a lover
   G#m     D#m
Is easy my brother

- play riff four times -


CHORUS
A                            F#
 But it's no different baby now
    A                            F#
Woo, but it's no different baby now
Ooh


OUTRO


G#m   D#m  \
F#*        / x2


  *play this riff when in F#

e|-----2------0----------------0----|
B|---------0h2---4------2---0h2---4-|
G|----------------------------------|
D|-4------4---------4------4--------|
A|----------------------------------|
E|----------------------------------|


- end with this riff, three times:

e|------------0----------------0----|
B|-----2---0h2---4------2---0h2---4-|
G|----------------------------------|
D|-4------4---------4------4--------|  x3
A|----------------------------------|
E|----------------------------------|








Добавлено: 24.06.2015
Другие материалы по этой песне:
  • Аккорды и текст

Страница создана 24.06.2015
http://primanota.ru/cloud-control/rolling-stones-chords.htm
Привет, Гость.
Предлагаем пройти революционный курс по гитаре.
Подарок от PrimaNota.Ru, забирай!