PrimaNota.ru - самый крупный в мире бесплатный архив песенных текстов, аккордов, табулатур и нот


Cloud Control - My Fear 2 - таба, видео

Регистрация Запомнить меня
Войти через:  Facebook Google Twitter Vk Yandex Mail.ru

Cloud Control - My Fear 2 - таба, видео

Печатать
Просмотров: 164
Уроки эстрадного вокала в Санкт-Петербурге
Cloud Control - My Fear #2

-> CAPO III <-


INTRO

   A               Em              G              D

e|-----------0---------------0---------------0-----------2---0-----|
B|-2-----3---------0-----3---------0-----3---------3---------------|
G|---2-----------2---0-----------0---0-----------0---2-----------0-|
D|-----2---------------2---------------0---------------4-----------|   x3
A|-----------------------------------------------------------------|
E|-----------------------------------------------------------------|

   A               Em              G              D

e|-----------0---------------0---------------0-----------3-2-0-----|
B|-2-----3---------0-----3---------0-----3---------3-----------3---|
G|---2-----------2---0-----------0---0-----------0---2-------------|
D|-----2---------------2---------------0---------------4-----------|  
A|-----------------------------------------------------------------|
E|-----------------------------------------------------------------|


VERSE 1
A                      Em
 Paper face and movie quips
                       G
Silver screen and magazine
                          D
Dancing shoes the evening news
Wooah Wooah
A                            Em
 Throw the picture throw the tape
                             G
Keep the frame and keep the case
                       D
First a feather now a bird
Wooah Wooah


CHORUS (play the riff twice)

Wooah Wooah
Wooah Wooah


VERSE 2
A                       Em
 Box of light hanging square
                         G
In the night and in the air
                           D
Ring the bell a new front door
            
Noone lives here any more

A                          Em
 I could be true to you I swear
                          G
Even the night is in the air
                                    D
With all the terrible things we've done
We've done


CHORUS (play the riff twice)

Wooah Wooah
Wooah Wooah


SOLO

A   Em   \ 
G   D    / x2


e|-----------------------------------------------------------------|
B|-----------------------------------------------------------------|
G|-----------------0---0---0---2---4---4---4---7---2---2---2---0---|
D|---0---0---0---0---0---0---0---0---0---0---0---0---0---0---0---0-|
A|-7---7---7---9---------------------------------------------------|  \
E|-----------------------------------------------------------------|   \
  (if you have 20+ frets you can play all notes on the A string)        x2
e|-----------------------------------------------------------------|   /
B|-----------------------------------------------------------------|  /
G|-----------------------------------------------------------------|
D|---0---0---0---0---0---0---0---0---0---0---0---0---0---0---0---0-|
A|-7---7---7---9---5---5---5---2---5---5---5---5---5---5---5---5---|
E|-----------------------------------------------------------------|


OUTRO

     A      Em  G  D  \
Oh I scared           / x10


- play it like this in the outro:

   A               Em              G               D
e|-----------------------------------------------------------------|
B|-----------------------------------------------------------------|
G|---------------------------------------------------2---2---2---2-|
D|---2---2---2---2---------------------------------0---0---0---0---|
A|-0---0---0---0-----2---2---2---2---5---5---5---5-----------------|
E|-----------------0---0---0---0---3---3---3---3-------------------|


end on A
Добавлено: 09.06.2015
Другие материалы по этой песне:

Страница создана 06.11.2013
http://primanota.ru/cloud-control/my-fear-2-chords.htm
Привет, Гость.
Предлагаем пройти революционный курс по гитаре.
Подарок от PrimaNota.Ru, забирай!