PrimaNota.ru - самый крупный в мире бесплатный архив песенных текстов, аккордов, табулатур и нот


Cloud Control - In Your World - таба, видео

Регистрация Запомнить меня
Войти через:  Facebook Google Twitter Vk Yandex Mail.ru

Cloud Control - In Your World - таба, видео

Печатать
Просмотров: 152
Cloud Control - In Your World


INTRO

   A

e|----------------------------------------------------------------|
B|------0----2----------------------------------0-----------------|
G|-------------------------------2--------------------------------|
D|--------------------------4------------------------6----6\2-----|
A|-0-------0-----------0-------0-----------0-------0-----0--------|
E|----------------------------------------------------------------|

   A   

e|------5---------------5-----------------------------------------|
B|--------7--5------------7--5------------------------------------|
G|-6------------6---------------6--4-6----------------------------|
D|--------------------------------------7----9--6----6\2----------|
A|-------------------------------------------------0--------------|
E|----------------------------------------------------------------|

   A   C#m        F#m    C#m         F#m      C#m          F#m

e|------5------------------5---------------------5----------------|
B|--------7-5----------------7-5-------------------7-5------------|
G|-6----------6--4--6------------6--4--6---------------6--4--6----|
D|----------------------------------------7-----------------------|
A|----------------------------------------------------------------|
E|----------------------------------------------------------------|

       C#m             A 
 
e|--------------------------|
B|--------------------------|
G|---4-6---4-6---4---4\2----|
D|--------------------------|
A|--------------------------|
E|--------------------------|


VERSE 1
A
Dreaming like a zero zone
Burn you bridges one by one 
Bide your time

A C#m           F#m   
  Treaded on my fingertips
C#m              F#m
Know your limits of the sea
C#m     F#m   C#m
Time to shine


PRE-CHORUS
D        C#m
 In your world
F#m  C#m          D   
 I'm coming to prepare
        C#m
In your world
F#m  C#m
 I'm coming up for a


CHORUS (*see below)
A          C#          D
Car on the road to the south 
       B
Yeah I know
A          C#          D
Car on the road to the south 
       B
Yeah I know

A A A A


KEYS INTERMEZZO

> this is the guitar underneath the keys solo. 

   A

e|------------------------------------------------------------------|
B|------------------------------------------------------------------|
G|------------------------------------------------------------------|
D|---------6-7-9-7-6-7---6--6--------6-7-9-7-6-7--6--6--------------|
A|---------------------------7------------------------7-------------|
E|------------------------------------------------------------------|

                                A       C#m        F#m    C#m      F#m

e|------------------------------------------------------------------|
B|------------------------------------------------------------------|
G|------------------------------------------------------------------|
D|-6-7-9-7-6-7--9--11----------11---12-9---9-11-9-7----9-6--6-7-6---|
A|----------------------------------------------------------------9-|
E|------------------------------------------------------------------|

          C#m       F#m      C#m 
  
e|------------------------------------------------------------------|
B|------------------------------------------------------------------|
G|-----------------6-------(6)--------------------------------------|
D|---------------7--------------------------------------------------|
A|----11-7---7-9----------------------------------------------------|
E|------------------------------------------------------------------|


VERSE 2
A
 You were taller when we met
I haven't seen your garden yet
Can you grow

A    C#m              F#m        
 The phone is ringing all the time
    C#m               F#m
But you're not saying anything
C#m   F#m   C#m
Do you know


> repeat pre-chorus and chorus


KEYS AND GUITAR SOLO


e|---9-7----------------------------------------------------------|
B|-------10---9---10-9-7------------------------------------------|
G|-----------------------9----------------------------------------|
D|--------------------------9-11----9-11-9------------------------| x2
A|-----------------------------------------12--11-7---9-----------|
E|----------------------------------------------------------------|

e|----------------------------------------------------------------|
B|----------------------------------------------------------------|
G|----------------------6-6-------9-6-----9-6---------------------|
D|----------6-6-7-7-9-9---------9-------9-------9-7---------------|
A|--7-7-9-9-----------------------------------------9-------9\7---|
E|----------------------------------------------------------------|



> repeat pre-chorus and chorus (play the chorus line three times instead of two this time)


OUTRO

A A A A

end on Amaj7

_______________________________________________________________________________________________

* a second guitar could play these notes during chorus (they're played on keys in the song):

e|---9--7---------9--7------|
B|---------9------------9---|
G|---------------6----------|
D|--------------------------|
A|--------------------------|
E|--------------------------|













Добавлено: 24.06.2015
Другие материалы по этой песне:
  • Аккорды и текст

Страница создана 24.06.2015
http://primanota.ru/cloud-control/in-your-world-chords.htm
Привет, Гость.
Предлагаем пройти революционный курс по гитаре.
Подарок от PrimaNota.Ru, забирай!