PrimaNota.ru - самый крупный в мире бесплатный архив песенных текстов, аккордов, табулатур и нот


Closure In Moscow - Reindeer Age - таба, видео

Регистрация Запомнить меня
Войти через:  Facebook Google Twitter Vk Yandex Mail.ru

Closure In Moscow - Reindeer Age - таба, видео

Печатать
Просмотров: 105
Artist: Closure In Moscow
Song: Reindeer Age (Intro)
Album: First Temple
Tabbed by: Tanjamin

Figured this out by ear, but I think this is close to what is played.

Tuning: Standard

Clean intro x2

e|-------------------------------------------|
B|-------------------------9-----------------|
G|-10-10-8-10-10-8-10-8-10---10-8-10-8-------|
D|-------------------------------------11-10-|
A|-------------------------------------------|
E|-------------------------------------------|

e|-------------------------------------------|
B|-------------------------------------------|
G|-------------------------------------------|
D|-10-10-10-11-10-8-------8-8-8-10-8---------|
A|------------------11-11------------11-8~---|
E|-------------------------------------------|

e|-------------------------------------------|
B|-------------------------9-----------------|
G|-10-10-8-10-10-8-10-8-10---10-8-10-8-------|
D|-------------------------------------11-10-|
A|-------------------------------------------|
E|-------------------------------------------|

e|-------------------------------------------|
B|-------------------------------------------|
G|-------------------------------------------|
D|-10-10-10-11-10-8-------8-8-10b~--8~---8-8-|
A|------------------11-11--------------------|
E|-------------------------------------------|



Heavy: 
e|----------------------------------------------|
B|----------------------------------------------|
G|----------------------------------------------|
D|-10-10-10-10h11p10----------8-8-8-8h10p8------|
A|-------------------13-11-----------------11-8-|
E|----------------------------------------------|

e|----------------------------------------|
B|----------------------------------------|
G|-8-8-8-8h10p8---------8-8-8-8h10p8------|
D|--------------11-8-----------------11-8-|
A|----------------------------------------|
E|----------------------------------------|

e|---------------------------------------------------|
B|---------------------------------------------------|
G|-10-10-10-10h13p10---------10-10-10-10h13p10-------|
D|-------------------13-11---------------------13-11-|
A|---------------------------------------------------|
E|---------------------------------------------------|

e|----------------------------------------------|
B|----------------------------------------------|
G|----------------------------------------------|
D|-10-10-10-10h11p10----------8-8-8-8h10p8------|
A|-------------------13-11-----------------11-8-|
E|----------------------------------------------|

e|----------------------------------------------------|
B|----------------------------------------------------|
G|----------------------------------------------------|
D|-10-10-10-10h11p10----------11-11-11-11h13p11-------|
A|-------------------13-11----------------------15-13-|
E|----------------------------------------------------|


e|-------------------------------------------|
B|-------------------------------------------|
G|-8-8-8-8h10p8---------10-10-10h13p10-------|
D|--------------11-10------------------13-11-|
A|-------------------------------------------|
E|-------------------------------------------|

e|---------------------------------------|
B|------------------------------------9--|
G|-8-8-8-8h10p8---------10-10-10-8-10----|
D|--------------11-8---------------------|
A|---------------------------------------|
E|---------------------------------------|

e|-----------------------------------------|
B|---------9---------9---------9---------9-|
G|-10-8-10---10-8-10---10-8-10---10-8-10---|
D|-----------------------------------------|
A|-----------------------------------------|
E|-----------------------------------------|

Then onto the verse.

Hope this helps.

************************************

| /   slide up
| \   slide down
| h   hammer-on
| p   pull-off
| ~   vibrato
| +   harmonic
| x   Mute note
| b   Bend
| pb  Pre-bend
| br  Bend release
| pbr Pre-bend release
| brb Bend release bend

************************************
Добавлено: 01.11.2013
Другие материалы по этой песне:
  • Аккорды и текст

Страница создана 01.11.2013
http://primanota.ru/closure-in-moscow/reindeer-age-chords.htm
Привет, Гость.
Предлагаем пройти революционный курс по гитаре.
Подарок от PrimaNota.Ru, забирай!