PrimaNota.ru - самый крупный в мире бесплатный архив песенных текстов, аккордов, табулатур и нот


Closure In Moscow - Happy Days - бас-таба, видео

Регистрация Запомнить меня
Войти через:  Facebook Google Twitter Vk Yandex Mail.ru

Closure In Moscow - Happy Days - бас-таба, видео

Печатать
Просмотров: 52
-------------------------------------------------------------------------------
                             Happy Days - Closure In Moscow
-------------------------------------------------------------------------------
Tabbed by: MisfitActual 
E-mail: ctannershaw@gmail.com

Tuning: Standard EADG
Tempo: 160 bpm
Use a pick, make your life easier

This band is amazing, I wish there was more tabs for them. 

Intro
G|---------------------------------------------------------------------------|
D|---------------------------------------------------------------------------|
A|---------------------------------------------------------------------------|
E|-0~~~~~~-------------------------------------------------------------------|

Verse 1 "I won't let anyone have mercy..."
G|---------------------------------------------------------------------------|
D|---------------------------------------------------------------------------|
A|-2-0-------------------------------------------------------Repeat x4-------|
E|----2-0-00-00-00-0-12-00-00-00-0-12-00-00-00-00-0-12-00-00-----------------|

Chorus "Chasing happy days, tell me are you closer now..."
G|---------------------------------------------------------------------------|
D|---------------------------------------------------------------------------|
A|------------------------------------Repeat x2------------------------------|
E|0-0-0-0-0-0-0-0-0-0-5-5-5-3-0-0-0-0----------------------------------------|

"And I won't let anyone have mercy..."
G|---------------------------------------------------------------------------|
D|---------------------------------------------------------------------------|
A|-------2--2-2-0--0---------------------------------------------------------|
E|0--0-0-------------3-0--0-0------------------------------------------------|

Pre-Verse ("We have all but given up...")
G|---------------------------------------------------------------------------|
D|---------------------------------------------------------------------------|
A|--------------------------------------------------------(x2)---------------|
E|0-00-00-00-0-12-00-00-00-0-12-00-00-00-00-0-12-00-00-----------------------|

Verse 2
G|---------------------------------------------------------------------------|
D|---------------------------------------------------------------------------|
A|-2-0------(wait 4 measures and repeat x3)----------------------------------|
E|-----2-0-------------------------------------------------------------------|

Chorus "Chasing happy days, tell me are you closer now..."
G|---------------------------------------------------------------------------|
D|---------------------------------------------------------------------------|
A|------------------------------------Repeat x2------------------------------|
E|0-0-0-0-0-0-0-0-0-0-5-5-5-3-0-0-0-0----------------------------------------|

"And I won't let anyone have mercy..."
G|---------------------------------------------------------------------------|
D|---------------------------------------------------------------------------|
A|-------2--2-2-0--0------------Repeat x2------------------------------------|
E|0--0-0-------------3-0--0-0------------------------------------------------|

Repeat x2

Guitar Solo
G|---------------------------------------------------------------------------|
D|---------------------------------------------------------------------------|
A|------(wait 4 measures and repeat x4)--2-0---------------------------------|
E|-0-2---------------------------------------3-0-----------------------------|

Verse 3 "The future is fine..."                 Outro
G|---------------------------------------------|-----------------------------|
D|---------------------------------------------|-----------------------------|
A|----------------------------------------(x4)-|-----------(x5)--------------|
E|-7-7-77-7-7-77-7-5-5-55-5-5-3-3-3-0-0-0------|-0-0-3-5---------------------|

| /  slide up
| \  slide down
| h  hammer-on
| p  pull-off
| ~  sustain note
| +  harmonic
| x  Mute note
===============================================================================
Добавлено: 02.01.2016
Другие материалы по этой песне:
  • Аккорды и текст

Страница создана 02.01.2016
http://primanota.ru/closure-in-moscow/happy-days-chords.htm
Привет, Гость.
Предлагаем пройти революционный курс по гитаре.
Подарок от PrimaNota.Ru, забирай!