PrimaNota.ru - самый крупный в мире бесплатный архив песенных текстов, аккордов, табулатур и нот


Closure In Moscow - A Night At The Spleen - таба, видео

Регистрация Запомнить меня
Войти через:  Facebook Google Twitter Vk Yandex Mail.ru

Closure In Moscow - A Night At The Spleen - таба, видео

Печатать
Просмотров: 143
I'm 99% sure the album is recorded in a different tuning but I haven't worked on
figuring out the entire album so I tabbed this solo in standard. I'm fairly sure this 
is accurate except
for the second line. I couldn't quite figure out the string of notes.

e|-18b20--18b20v---17h18p17p15----15---------------13-------------13-------------13----------|
B|-----------------------------18----15v-----13h15----15v---13h15----15v---13h15----15v------|
G|-------------------------------------------------------------------------------------------|
D|-------------------------------------------------------------------------------------------|
A|-------------------------------------------------------------------------------------------|
E|-------------------------------------------------------------------------------------------|

e|-13h15p13----------------------------------------------------------------------------------|
B|----------13h15p13---------------------------------13-15v----------------------------------|
G|-------------------14h15p14p12/10-12v-----12h14h15---------17b19-17b19-17b19---15--15vvv---|
D|-------------------------------------------------------------------------------------------|
A|-------------------------------------------------------------------------------------------|
E|-------------------------------------------------------------------------------------------|

e|--------------------------------------------------------20-20-20/22-22---------|
B|----20p15-18p15-------20p15-18p15----------------------------------------------|
G|----------------17p15-------------17p15--17b19-17vv-----17-17-17/19-19---------|
D|-------------------------------------------------------------------------------|
A|-------------------------------------------------------------------------------|
E|-------------------------------------------------------------------------------|
Добавлено: 20.07.2012
Другие материалы по этой песне:

Страница создана 05.06.2012
http://primanota.ru/closure-in-moscow/a-night-at-the-spleen-chords.htm
Привет, Гость.
Предлагаем пройти революционный курс по гитаре.
Подарок от PrimaNota.Ru, забирай!