PrimaNota.ru - самый крупный в мире бесплатный архив песенных текстов, аккордов, табулатур и нот


Closehead - Menjelang Hilang - таба, видео

Регистрация Запомнить меня
Войти через:  Facebook Google Twitter Vk Yandex Mail.ru

Closehead - Menjelang Hilang - таба, видео

Печатать
Просмотров: 123
Song       : Menjelang Hilang
Artist     : Closehead
Tabbed by  : yoos (yoosyoes.blogspot.com)


Fig1
e|----------|
B|----------|
G|----------|
D|-----7----|
A|--5-------|
E|----------|

Fig2
e|------------|
B|------------|
G|-------(7)--|
D|--(7)-------|
A|------------|
E|------------|
Note: Cukup disentuh jangan ditekan

Fig3
e|------------------------------|
B|------------------------------|
G|--7-7---5-7---6-6---7-9---10--|
D|------------------------------|
A|--5-5---3-5---4-4---5-7----8--|
E|------------------------------|

Fig4
e|--------------------------|
B|--------------------------|
G|--10----10-9---9-9-9-10---|
D|--------------------------|
A|---8-----8-7---7-7-7--8---|
E|--------------------------|

Fig5
e|--------------|
B|--------------|
G|--------------|
D|--------------|
A|--4-------5---|
E|------5-------|

Fig6
e|-------------------------|
B|--11-------10--------8---|
G|-------------------------|
D|-------------------------|
A|-------------------------|
E|-------------------------|

Fig7
e|-------------------------------------------------------------------|
B|--11-11-11-11-11-11-11-11-10-10-10-10-10-10-10-10-8-8-8-8-8-8-8-8--|
G|-------------------------------------------------------------------|
D|-------------------------------------------------------------------|
A|-------------------------------------------------------------------|
E|-------------------------------------------------------------------|

e|--------------------------------------------------------------------|
B|--6-6-6-6-6-6-6-6--11-11-11-11-11-11-11-11-10-10-10-10-10-10-10-10--|
G|--------------------------------------------------------------------|
D|--------------------------------------------------------------------|
A|--------------------------------------------------------------------|
E|--------------------------------------------------------------------|

e|-------------------------------------------------------------|
B|--8-8-8-8-8-8-8-8-6-6-6-6-6-6-6-6---10-10-10-10-10-10-10-10--|
G|-------------------------------------------------------------|
D|-------------------------------------------------------------|
A|-------------------------------------------------------------|
E|-------------------------------------------------------------|



Fig1
D5                   A#5
Awal yang tak pernah hilang
Fig1
G5                   A5
Tlah tersimpan di lubuk hati terdalam
Fig1                        Fig2
D5                   A#5
Hati mana tak terluka
Fig1
G5                   A5
Melawan harapan menjelang hilang

Fig3
D5 A5

F5         C5
Selama aku bernapas
D5         A5
Selama aku mampu
                       Fig4
A#5        F5        C5
melihat terang kehidupan
F5         C5
Akan ku kenang dirimu
D5         A5
takkan ku lupakan kamu
A#5        F5        C5
pastikan slalu ku kenang

Fig6
G5 F5 C5
hoooooo woouuooo
Fig6               Fig5
G5 F5 C5
hoooooo woouuooo

D5 A#5 F5 E5

Fig7
G5         A#5
gelap sudah kulihat
F5
menjelang hilang

A#5        F5
jagalah dirimu baik-baik
A#5        F5
jagalah dirimu baik-baik
A#5    D5   C5  A#5
jagalah dirimu baik-baik

F5         C5
Selama aku bernapas
D5         A5
Selama aku mampu
                       Fig4
A#5        F5        C5
melihat terang kehidupan
F5         C5
Akan ku kenang dirimu
D5         A5
takkan ku lupakan kamu
A#5        F5        C5
pastikan slalu ku kenang

Fig6
G5 F5 C5
hoooooo woouuooo
Fig6               Fig5
G5 F5 C5
hoooooo woouuooo
Добавлено: 14.06.2012
Вам также может быть интересно:
Другие материалы по этой песне:
  • Аккорды и текст

Страница создана 14.06.2012
http://primanota.ru/closehead/menjelang-hilang-chords.htm
Привет, Гость.
Предлагаем пройти революционный курс по гитаре.
Подарок от PrimaNota.Ru, забирай!