PrimaNota.ru - самый крупный в мире бесплатный архив песенных текстов, аккордов, табулатур и нот


Close Your Eyes - Erie - таба, видео

Регистрация Запомнить меня
Войти через:  Facebook Google Twitter Vk Yandex Mail.ru

Close Your Eyes - Erie - таба, видео

Печатать
Просмотров: 105
----------------------------------------------------------------------------
                             Close Your Eyes - Erie
----------------------------------------------------------------------------

Tuning: DADGBE
Tabby by: Metalrock4ever

vvvvvvvvvvvvv
~  - vibrato
^^^^^^^^^^^^^

Intro (solo):
|------------------------------------------|
|------------------------------------------|
|------------------------------------------|
|------------------------------------------|
|-4-7-9-11~-4-7-9-11~-14-14-14-14-11-11-9~-|
|------------------------------------------|

|-----------------------------------------|
|-----------------------------------------|
|-----------------------------------------|
|-----------------------------------------|
|-4-7-9-11~-4-7-6-4~-14-14-14-14-11-11-9~-|
|-----------------------------------------|

|----------------------------------------|
|----------------------------------------|
|----------------------------------------|
|----------------------------------------|
|-4-7-9-11~-4-7-7-7~-14-14-14-14-11-11-9-|
|----------------------------------------|

|-----------------------------------------|
|-----------------------------------------|
|-----------------------------------------|
|-----------------------------------------|
|-4-7-9-11~-4-7-6-4~-14-14-14-14-11-11-9~-|
|-----------------------------------------|

Verse 1:
|----------|
|----------|        (The guitar plays a rhythm based around these chords
|-6~-9~-4~-|         and he uses palm mutes on the silent chords. The last 
|-6~-9~-4~-|    x4   held chord is open, not muted.) 
|-4~-7~-2~-|         
|----------|         

Chorus:
|------------------------------------------|
|------------------------------------------|
|------------------------------------------|
|------------------------------------------|
|-4-7-9-11~-4-7-9-11~-14-14-14-14-11-11-9~-|
|------------------------------------------|

|-----------------------------------------|
|-----------------------------------------|
|-----------------------------------------|
|-----------------------------------------|
|-4-7-9-11~-4-7-6-4~-14-14-14-14-11-11-9~-|
|-----------------------------------------|

|----------------------------------------|
|----------------------------------------|
|----------------------------------------|
|----------------------------------------|
|-4-7-9-11~-4-7-7-7~-14-14-14-14-11-11-9-|
|----------------------------------------|

|-----------------------------------------|
|-----------------------------------------|
|-----------------------------------------|
|-----------------------------------------|
|-4-7-9-11~-4-7-6-4~-14-14-14-14-11-11-9~-|
|-----------------------------------------|

Verse 2:
|----------|
|----------|        (The guitar plays a rhythm based around these chords
|-6~-9~-4~-|         and he uses palm mutes on the silent chords. The last 
|-6~-9~-4~-|    x2   held chord is open, not muted.) 
|-4~-7~-2~-|         
|----------|         

|-----------------------|
|-----------------------|
|-6-6-6-6~-6-6-6-6~-(4)-|
|-6-6-6-6~-6-6-6-6~-(4)-|    (no palm mute)
|-4-4-4-4~-4-4-4-4~-(2)-|
|-----------------------|

|----------|
|----------|
|-6-6-6-6~-|
|-6-6-6-6~-|    x2
|-4-4-4-4~-|
|----------|

Pre-Chorus:
|-------------|
|-------------|
|-------------|
|-------------|
|-4-7-9-11-11-|
|-------------|

Chorus:
|------------------------------------------|
|------------------------------------------|
|------------------------------------------|
|------------------------------------------|
|-4-7-9-11~-4-7-9-11~-14-14-14-14-11-11-9~-|
|------------------------------------------|

|-----------------------------------------|
|-----------------------------------------|
|-----------------------------------------|
|-----------------------------------------|
|-4-7-9-11~-4-7-6-4~-14-14-14-14-11-11-9~-|
|-----------------------------------------|

|----------------------------------------|
|----------------------------------------|
|----------------------------------------|
|----------------------------------------|
|-4-7-9-11~-4-7-7-7~-14-14-14-14-11-11-9-|
|----------------------------------------|

|-----------------------------------------|
|-----------------------------------------|
|-----------------------------------------|
|-----------------------------------------|
|-4-7-9-11~-4-7-6-4~-14-14-14-14-11-11-9~-|
|-----------------------------------------|

Bridge:
|------------------|
|------------------|
|-6-6-6~-4~-2-2-2~-|     x2
|-6-6-6~-4~-2-2-2~-|
|-4-4-4~-2~-0-0-0~-|
|------------------|

|----------|
|----------|
|-6~-4~-2~-|
|-6~-4~-2~-|  x2
|-4~-2~-0~-|
|----------|

Outro:
|----------|
|-5-5-5-5~-|
|-6-6-6-6~-|
|-6-6-6-6~-|     
|-4-4-4-4~-|
|----------|

If there are any corrections, feel free to tell me. Enjoy!
Добавлено: 15.07.2013
Другие материалы по этой песне:
  • Аккорды и текст

Страница создана 15.07.2013
http://primanota.ru/close-your-eyes/erie-chords.htm
Привет, Гость.
Предлагаем пройти революционный курс по гитаре.
Подарок от PrimaNota.Ru, забирай!