PrimaNota.ru - самый крупный в мире бесплатный архив песенных текстов, аккордов, табулатур и нот


Close To Home - Pirates Belong At Sea - таба, видео

Регистрация Запомнить меня
Войти через:  Facebook Google Twitter Vk Yandex Mail.ru

Close To Home - Pirates Belong At Sea - таба, видео

Печатать
Просмотров: 80
Авторы: Close to Home, Andrew Wade

----------------------------------------------------------------------------
                         Pirates Belong at Sea
                            Close to Home
----------------------------------------------------------------------------

These guys are going to shine. I just noticed them from Momentum and their single
“Backstabbers Need Not Apply” and I am compelled by their abilities to write such incredible
music. It is not every day you find a band that can connect with fans, write beautiful 
songs and give amazing live performances. This is a very heartfelt song with some very
heartfelt riffs. Enjoy!

Username: dkm817 (same on X box live)
Youtube Cover: http://www.youtube.com/watch?v=zZsY6OivqmI
Email: guitardrums@rockfan.com

Guitar 1 Rhythmic (C G C F A D)
Guitar 2 Lead     (C G C F A D)

Tab Guide...
==================================================================
(end of measures)

==================================================================
==================================================================
(end of parts)

==================================================================
==================================================================
==================================================================
(end of song)

(If there is a “continued” it is because the numbers could not
fit on 1 line or connecting times played.)


Intro 1

Guitar 1
D-----------------------------------------------------------------|
A-----------------------------------------------------------------|
F-9~~~~~~-9---9---9---9---9---9---9---9---9---9---9---9---9---9---|
C-x-------x---x---x---x---x---x---x---x---x---x---x---x---x---x---|
G-7~~~~~~-7---7---7---7---7---7---7---7---7---7---7---7---7---7---|
C-----------------------------------------------------------------|

Guitar 2
D-----------------------------------------------------------------|
A-10~~~~~-10--10--10--10--10--10--10--10--10--10--10--10--10--10--|
F-x-------x---x---x---x---x---x---x---x---x---x---x---x---x---x---|
C-7~~~~~~-7---7---7---7---7---7---7---7---7---7---7---7---7---7---|
G-----------------------------------------------------------------|
C-----------------------------------------------------------------|

==================================================================

Guitar 1
D-----------------------------------------------------------------|
A-----------------------------------------------------------------|
F-9~~~~~~-9---9---9---9---9---9---9---9---9---9---9---9---9---9---|
C-x-------x---x---x---x---x---x---x---x---x---x---x---x---x---x---|
G-7~~~~~~-7---7---7---7---7---7---7---7---7---7---7---7---7---7---|
C-----------------------------------------------------------------|

Guitar 2
D-----------------------------------------------------------------|
A-10~~~~~-10--10--10--10--10--10--10--10--10--10--10--9---9---9---|
F-x-------x---x---x---x---x---x---x---x---x---x---x---x---x---x---|
C-7~~~~~~-7---7---7---7---7---7---7---7---7---7---7---6---6---6---|
G-----------------------------------------------------------------|
C-----------------------------------------------------------------|

==================================================================

Guitar 1
D-----------------------------------------------------------------|
A-----------------------------------------------------------------|
F-----------------------------------------------------------------|
C-4-------4---4---------------4-------4---------------4---4---4---|
G-4-------4---4---------------4-------4---------------4---4---4---|
C-4-------4---4---------------4-------4---------------4---4---4---|
Pm.       .   .               .       .               .   .   .

Guitar 2
D-----------------------------------------------------------------|
A-10~~~~~-10--10--10--10--10--10--10--10--10--10--10--10--10--10--|
F-x-------x---x---x---x---x---x---x---x---x---x---x---x---x---x---|
C-7~~~~~~-7---7---7---7---7---7---7---7---7---7---7---7---7---7---|
G-----------------------------------------------------------------|
C-----------------------------------------------------------------|

==================================================================

Guitar 1
D-----------------------------------------------------------------|
A-----------------------------------------------------------------|
F-----------------------------------------------------------------|
C-4-------4---4---------------4-------4---------------4---4---4---|
G-4-------4---4---------------4-------4---------------4---4---4---|
C-4-------4---4---------------4-------4---------------4---4---4---|
Pm.       .   .               .       .               .   .   .

Guitar 2
D-----------------------------------------------------------------|
A-10~~~~~-10--10--10--10--10--10--10--10--10--10--10--9---9---9---|
F-x-------x---x---x---x---x---x---x---x---x---x---x---x---x---x---|
C-7~~~~~~-7---7---7---7---7---7---7---7---7---7---7---6---6---6---|
G-----------------------------------------------------------------|
C-----------------------------------------------------------------|

==================================================================

Guitar 1
D-----------------------------------------------------------------|
A-----------------------------------------------------------------|
F-----------------------------------------------------------------|
C-0-------0---0---------------0-------0---------------0---0---0---|
G-0-------0---0---------------0-------0---------------0---0---0---|
C-0-------0---0---------------0-------0---------------0---0---0---|
Pm.       .   .               .       .               .   .   .

Guitar 2
D-----------------------------------------------------------------|
A-10~~~~~-10--10--10--10--10--10--10--10--10--10--10--10--10--10--|
F-x-------x---x---x---x---x---x---x---x---x---x---x---x---x---x---|
C-7~~~~~~-7---7---7---7---7---7---7---7---7---7---7---7---7---7---|
G-----------------------------------------------------------------|
C-----------------------------------------------------------------|

==================================================================

Guitar 1
D-----------------------------------------------------------------|
A-----------------------------------------------------------------|
F-----------------------------------------------------------------|
C-7-------7---7---------------7-------2---2---2---2---2---2---2---|
G-7-------7---7---------------7-------2---2---2---2---2---2---2---|
C-7-------7---7---------------7-------2---2---2---2---2---2---2---|
Pm.       .   .               .       .   .   .   .   .   .   .

Guitar 2
D-----------------------------------------------------------------|
A-----------------------------------------------------------------|
F-9~~~~~~-9---9---9---9---9---9---9---7---7---7---7---6---6---6---|
C-x-------x---x---x---x---x---x---x---x---x---x---x---x---x---x---|
G-7~~~~~~-7---7---7---7---7---7---7---5---5---5---5---4---4---4---|
C-----------------------------------------------------------------|

==================================================================

Guitar 1
D-----------------------------------------------------------------|
A-----------------------------------------------------------------|
F-----------------------------------------------------------------|
C-4-------4---4---------------4-------4---------------4---4---4---|
G-4-------4---4---------------4-------4---------------4---4---4---|
C-4-------4---4---------------4-------4---------------4---4---4---|
Pm.       .   .               .       .               .   .   .

Guitar 2
D-------------12~~~~~~~~~~~~~-------------------------------------|
A-10~~~~~-10------------------10~~~~~-10~~~~~-10~~~~~-10~~~~~-10--|
F-----------------------------------------------------------------|
C-----------------------------------------------------------------|
G-----------------------------------------------------------------|
C-----------------------------------------------------------------|

==================================================================

Guitar 1
D-----------------------------------------------------------------|
A-----------------------------------------------------------------|
F-----------------------------------------------------------------|
C-4-------4---4---------------4-------4---------------4---4---4---|
G-4-------4---4---------------4-------4---------------4---4---4---|
C-4-------4---4---------------4-------4---------------4---4---4---|
Pm.       .   .               .       .               .   .   .

Guitar 2
D-----------------------------------------------------------------|
A-9~~~~~~-9---10~~~~~~~~~~~~~-10~~~~~-10~~~~~-10~~~~~-10~~~~~-10--|
F-----------------------------------------------------------------|
C-----------------------------------------------------------------|
G-----------------------------------------------------------------|
C-----------------------------------------------------------------|

==================================================================

Guitar 1
D-----------------------------------------------------------------|
A-----------------------------------------------------------------|
F-----------------------------------------------------------------|
C-0-------0---0---------------0-------0---------------0---0---0---|
G-0-------0---0---------------0-------0---------------0---0---0---|
C-0-------0---0---------------0-------0---------------0---0---0---|
Pm.       .   .               .       .               .   .   .

Guitar 2
D-------------12~~~~~~~~~~~~~-------------------------------------|
A-10~~~~~-10------------------10~~~~~-10~~~~~-10~~~~~-10~~~~~-10--|
F-----------------------------------------------------------------|
C-----------------------------------------------------------------|
G-----------------------------------------------------------------|
C-----------------------------------------------------------------|

==================================================================

Guitar 1
D-----------------------------------------------------------------|
A-----------------------------------------------------------------|
F-----------------------------------------------------------------|
C-7-------7---7---------------7-------ps\~~~~~~~~~~~~~~~~~~~~~~~~-|
G-7-------7---7---------------7-------ps\~~~~~~~~~~~~~~~~~~~~~~~~-|
C-7-------7---7---------------7-------ps\~~~~~~~~~~~~~~~~~~~~~~~~-|
Pm.       .   .               .

Guitar 2
D-------------9~~~~~~-9~~~~~~~~~~~~~~-10~~~~~-9~~~~~~~~~~~~~~~~~~-|
A-----12~~~~~~~~~~~~~~~~~~~~~-12~~~~~~~~~~~~~~~~~~~~~-12~~~~~~~~~-|
F-----------------------------------------------------------------|
C-----------------------------------------------------------------|
G-----------------------------------------------------------------|
C-----------------------------------------------------------------|

==================================================================
==================================================================


Intro 2

Guitar 1
D-----------------------------------------------------------------|
A-----------------------------------------------------------------|
F-----------------------------------------------------------------|
C-4-------4---4---------------4-------4---------------4---4---4---|
G-4-------4---4---------------4-------4---------------4---4---4---|
C-4-------4---4---------------4-------4---------------4---4---4---|
Pm.       .   .               .       .               .   .   .

Guitar 2
D-----------------------------------------------------------------|
A-----------------------------------------------------------------|
F-6~~~~~~-6---6---6---6---6---6---6---6---6---6---6---6---6---6---|
C-----------------------------------------------------------------|
G-----------------------------------------------------------------|
C-----------------------------------------------------------------|

==================================================================

Guitar 1
D-----------------------------------------------------------------|
A-----------------------------------------------------------------|
F-----------------------------------------------------------------|
C-4-------4---4---------------4-------4---------------7---7---7---|
G-4-------4---4---------------4-------4---------------7---7---7---|
C-4-------4---4---------------4-------4---------------7---7---7---|
Pm.       .   .               .       .               .   .   .

Guitar 2
D-----------------------------------------------------------------|
A-----------------------------------------------------------------|
F-6---6---6---6---6---6---6---6---6---9---9---9---9---9---9---9---|
C-----------------------------------------------------------------|
G-----------------------------------------------------------------|
C-----------------------------------------------------------------|

==================================================================

Guitar 1
D-----------------------------------------------------------------|
A-----------------------------------------------------------------|
F-----------------------------------------------------------------|
C-0-------0---0---------------0-------0---------------0---0---0---|
G-0-------0---0---------------0-------0---------------0---0---0---|
C-0-------0---0---------------0-------0---------------0---0---0---|
Pm.       .   .               .       .               .   .   .

Guitar 2
D-----------------------------------------------------------------|
A-----------------------------------------------------------------|
F-2---2---2---2---2---2---2---2---2---2---2---2---2---2---2---2---|
C-----------------------------------------------------------------|
G-----------------------------------------------------------------|
C-----------------------------------------------------------------|

==================================================================

Guitar 1
D-----------------------------------------------------------------|
A-----------------------------------------------------------------|
F-----------------------------------------------------------------|
C-0-------0---0---------------0-------2---2---2---2---2---2---2---|
G-0-------0---0---------------0-------2---2---2---2---2---2---2---|
C-2-------2---2---------------2-------2---2---2---2---2---2---2---|
Pm.       .   .               .       .   .   .   .   .   .   .

Guitar 2
D-----------------------------------------------------------------|
A-----------------------------------------------------------------|
F-6~~~~~~-6---6---6---6---6---6---6---4---4---4---4---4---4---4---|
C-----------------------------------------------------------------|
G-----------------------------------------------------------------|
C-----------------------------------------------------------------|

==================================================================

Guitar 1
D-----------------------------------------------------------------|
A-----------------------------------------------------------------|
F-----------------------------------------------------------------|
C-4-------4---4---------------4-------4---------------4---4---4---|
G-4-------4---4---------------4-------4---------------4---4---4---|
C-4-------4---4---------------4-------4---------------4---4---4---|
Pm.       .   .               .       .               .   .   .

Guitar 2
D-----------------------------------------------------------------|
A-----------------------------------------------------------------|
F-6~~~~~~-6---6---6---6---6---6---6---6---6---6---6---6---6---6---|
C-----------------------------------------------------------------|
G-----------------------------------------------------------------|
C-----------------------------------------------------------------|

==================================================================

Guitar 1
D-----------------------------------------------------------------|
A-----------------------------------------------------------------|
F-----------------------------------------------------------------|
C-4-------4---4---------------4-------4---------------7---7---7---|
G-4-------4---4---------------4-------4---------------7---7---7---|
C-4-------4---4---------------4-------4---------------7---7---7---|
Pm.       .   .               .       .               .   .   .

Guitar 2
D-----------------------------------------------------------------|
A-----------------------------------------------------9---9---9---|
F-6---6---6---6---6---6---6---6---6---9---9---9---9---------------|
C-----------------------------------------------------------------|
G-----------------------------------------------------------------|
C-----------------------------------------------------------------|

==================================================================

Guitar 1
D-----------------------------------------------------------------|
A-----------------------------------------------------------------|
F-----------------------------------------------------------------|
C-0-------0---0---------------0-------0---------------0---0---0---|
G-0-------0---0---------------0-------0---------------0---0---0---|
C-0-------0---0---------------0-------0---------------0---0---0---|
Pm.       .   .               .       .               .   .   .

Guitar 2
D-----------------------------------------------------------------|
A-10--10--10--10--10--10--10--10--10--10--10--10--10--10--10--10--|
F-----------------------------------------------------------------|
C-----------------------------------------------------------------|
G-----------------------------------------------------------------|
C-----------------------------------------------------------------|

==================================================================

Guitar 1
D-----------------------------------------------------------------|
A-----------------------------------------------------------------|
F-----------------------------------------------------------------|
C-0-------0---0---------------0-------2---2---2---2---2---2---2---|
G-0-------0---0---------------0-------2---2---2---2---2---2---2---|
C-2-------2---2---------------2-------2---2---2---2---2---2---2---|
Pm.       .   .               .       .   .   .   .   .   .   .

Guitar 2
D-9~~~~~~-9---9---9---9---9---9---9---7---7---7---7---7---7---7---|
A-----------------------------------------------------------------|
F-----------------------------------------------------------------|
C-----------------------------------------------------------------|
G-----------------------------------------------------------------|
C-----------------------------------------------------------------|

==================================================================
==================================================================


Verse 1

Guitar 1
D-----------------------------------------------------------------|
A-----------------------------------------------------------------|
F-----------------------------------------------------------------|
C-4-------4---4---------------4-------4---------------4---4---4---|
G-4-------4---4---------------4-------4---------------4---4---4---|
C-4-------4---4---------------4-------4---------------4---4---4---|
Pm.       .   .               .       .               .   .   .

Guitar 2
D-------------7~~~~~~~~~~~~~~~~~~~~~~~~~~~~~~~~~~~~~~---------9~~~-|
A-10~~~~~~~~~------------------------------------------------------|
F-----------------------------------------------------9~~~~~~------|
C------------------------------------------------------------------|
G------------------------------------------------------------------|
C------------------------------------------------------------------|

==================================================================

Guitar 1
D-----------------------------------------------------------------|
A-----------------------------------------------------------------|
F-----------------------------------------------------------------|
C-0-------0---0---------------0-------0---------------0---0---0---|
G-0-------0---0---------------0-------0---------------0---0---0---|
C-0-------0---0---------------0-------0---------------0---0---0---|
Pm.       .   .               .       .               .   .   .

Guitar 2
D-~~~~~~~~~~~-7~~~~~~~~~~~~~~~~~~~~~~~~~~~~~~~~~~~~~~--------------|
A-----------------------------------------------------9~~~~~~-10~~-|
F------------------------------------------------------------------|
C------------------------------------------------------------------|
G------------------------------------------------------------------|
C------------------------------------------------------------------|

==================================================================

Guitar 1
D-----------------------------------------------------------------|
A-----------------------------------------------------------------|
F-----------------------------------------------------------------|
C-0-------0---0---------------0-------0---------------0---0---0---|
G-0-------0---0---------------0-------0---------------0---0---0---|
C-2-------2---2---------------2-------2---------------2---2---2---|
Pm.       .   .               .       .               .   .   .

Guitar 2
D-~~~~~~~~~~~-12~~~~~~~~~~~~~~~~~~~~~~~~~~~~~~~~~~~~~---------9~~~-|
A-----------------------------------------------------10~~~~~------|
F------------------------------------------------------------------|
C------------------------------------------------------------------|
G------------------------------------------------------------------|
C------------------------------------------------------------------|

==================================================================

Guitar 1
D-----------------------------------------------------------------|
A-----------------------------------------------------------------|
F-----------------------------------------------------------------|
C-2-------2---2---------------2-------2---------------2---2---2---|
G-2-------2---2---------------2-------2---------------2---2---2---|
C-2-------2---2---------------2-------2---------------2---2---2---|
Pm.       .   .               .       .               .   .   .

Guitar 2
D-~~~~~~~~~~~-7~~~~~~~~~~~~~~~~~~~~~~~~~~~~~~~~~~~~~~-------------|
A-----------------------------------------------------9---10------|
F-------------------------------------------------------------9---|
C-----------------------------------------------------------------|
G-----------------------------------------------------------------|
C-----------------------------------------------------------------|

==================================================================

Guitar 1
D-----------------------------------------------------------------|
A-----------------------------------------------------------------|
F-----------------------------------------------------------------|
C-4-------4---4---------------4-------4---------------4---4---4---|
G-4-------4---4---------------4-------4---------------4---4---4---|
C-4-------4---4---------------4-------4---------------4---4---4---|
Pm.       .   .               .       .               .   .   .

Guitar 2
D-------------7~~~~~~~~~~~~~~~~~~~~~~~~~~~~~~~~~~~~~~---------9~~~-|
A-10~~~~~~~~~------------------------------------------------------|
F-----------------------------------------------------9~~~~~~------|
C------------------------------------------------------------------|
G------------------------------------------------------------------|
C------------------------------------------------------------------|

==================================================================

Guitar 1
D-----------------------------------------------------------------|
A-----------------------------------------------------------------|
F-----------------------------------------------------------------|
C-0-------0---0---------------0-------0---------------0---0---0---|
G-0-------0---0---------------0-------0---------------0---0---0---|
C-0-------0---0---------------0-------0---------------0---0---0---|
Pm.       .   .               .       .               .   .   .

Guitar 2
D-~~~~~~~~~~~-7~~~~~~~~~~~~~~~~~~~~~~~~~~~~~~~~~~~~~~--------------|
A-----------------------------------------------------9~~~~~~-10~~-|
F------------------------------------------------------------------|
C------------------------------------------------------------------|
G------------------------------------------------------------------|
C------------------------------------------------------------------|

==================================================================

Guitar 1
D-----------------------------------------------------------------|
A-----------------------------------------------------------------|
F-----------------------------------------------------------------|
C-0-------0---0---------------0-------0---------------0---0---0---|
G-0-------0---0---------------0-------0---------------0---0---0---|
C-2-------2---2---------------2-------2---------------2---2---2---|
Pm.       .   .               .       .               .   .   .

Guitar 2
D-~~~~~~~~~~~-12~~~~~~~~~~~~~~~~~~~~~~~~~~~~~~~~~~~~~-16~~~~~-17~~-|
A------------------------------------------------------------------|
F------------------------------------------------------------------|
C------------------------------------------------------------------|
G------------------------------------------------------------------|
C------------------------------------------------------------------|

==================================================================

Guitar 1
D-----------------------------------------------------------------|
A-----------------------------------------------------------------|
F-----------------------------------------------------------------|
C-2-------2---2---------------2-------2--------------/12\~~~~~~~~-|
G-2-------2---2---------------2-------2--------------/12\~~~~~~~~-|
C-2-------2---2---------------2-------2--------------/12\~~~~~~~~-|
Pm.       .   .               .       .

Guitar 2
D-~~~~~~~~~~~-----------------------------------------------------|
A-------------17~~~~~~~~~~~~~~~~~~~~~~~~~~~~~~~~~~~~~-------------|
F-----------------------------------------------------------------|
C----------------------------------------------------/12~~~~~~~~~-|
G----------------------------------------------------/12\~~~~~~~~-|
C----------------------------------------------------/12\~~~~~~~~-|

==================================================================
==================================================================


Pre Chorus 1

Guitar 1 & 2
D-----------------------------------------------------------------|
A-----------------------------------------------------------------|
F-----------------------------------------------------------------|
C-----------------------------------------------------------------|
G-----------------------------------------------------------------|
C-4---4---4---4~~~~~~-4~~~~~~-4---4---4---4---4~~~~~~-4~~~~~~-4---|

==================================================================

Guitar 1 & 2
D-----------------------------------------------------------------|
A-----------------------------------------------------------------|
F-----------------------------------------------------------------|
C-----------------------------------------------------------------|
G-----------------------------------------------------------------|
C-7---7---7---7~~~~~~-7~~~~~~-7---2---2---2---2~~~~~~-2~~~~~~-2---|

==================================================================

Guitar 1 & 2
D-----------------------------------------------------------------|
A-----------------------------------------------------------------|
F-----------------------------------------------------------------|
C-----------------------------------------------------------------|
G-----------------------------------------------------------------|
C-0---0---0---0~~~~~~-0~~~~~~-0---0---0---0---0~~~~~~-0~~~~~~-0---|

==================================================================

Guitar 1 & 2
D-----------------------------------------------------------------|
A-----------------------------------------------------------------|
F-----------------------------------------------------------------|
C-----------------------------------------------------------------|
G-----------------------------------------------------------------|
C-7---7---7---7~~~~~~-7~~~~~~-7---2---2---2---2~~~~~~-2~~~~~~-2---|

==================================================================

Guitar 1
D-----------------------------------------------------------------|
A-----------------------------------------------------------------|
F-----------------------------------------------------------------|
C-4~~~~~~~~~~~~~~~~~~~~~~-x---x---2~~~~~~~~~~~~~~~~~~~~~~~~~~~~~~-|
G-4~~~~~~~~~~~~~~~~~~~~~~-x---x---2~~~~~~~~~~~~~~~~~~~~~~~~~~~~~~-|
C-4~~~~~~~~~~~~~~~~~~~~~~-x---x---2~~~~~~~~~~~~~~~~~~~~~~~~~~~~~~-|

Guitar 2
D-----------------------------------------------------------------|
A-----------------------------------------------------------------|
F---------------------------------------------------------0/~~~~~-|
C-4~~~~~~~~~~~~~~~~~~~~~~-x---x---2~~~~~~~~~~~~~~~~~~~~~~---------|
G-4~~~~~~~~~~~~~~~~~~~~~~-x---x---2~~~~~~~~~~~~~~~~~~~~~~---------|
C-4~~~~~~~~~~~~~~~~~~~~~~-x---x---2~~~~~~~~~~~~~~~~~~~~~~---------|

==================================================================
==================================================================


Chorus 1

(x2)

Guitar 1 & 2
D-----------------------------------------------------------------|
A-----------------------------------------------------------------|
F-----------------------------------------------------------------|
C-7---7---7---7---7---7---7---7---6---6---6---6---6---6---6---0---|
G-7---7---7---7---7---7---7---7---6---6---6---6---6---6---6---0---|
C-7---7---7---7---7---7---7---7---6---6---6---6---6---6---6---0---|

==================================================================

Guitar 1 & 2
D-----------------------------------------------------------------|
A-----------------------------------------------------------------|
F-----------------------------------------------------------------|
C-4---4---4---4---4---4---4---0---2---2---2---2---2---2---2---2---|
G-4---4---4---4---4---4---4---0---2---2---2---2---2---2---2---2---|
C-4---4---4---4---4---4---4---0---2---2---2---2---2---2---2---2---|

==================================================================
==================================================================


Bridge 1

Guitar 1
D-----------------------------------------------------------------|
A-----------------------------------------------------------------|
F-----------------------------------------------------------------|
C-4-------4---4---------------4-------4---------------4---4---4---|
G-4-------4---4---------------4-------4---------------4---4---4---|
C-4-------4---4---------------4-------4---------------4---4---4---|
Pm.       .   .               .       .               .   .   .

Guitar 2
D-----------------------------------------------------------------|
A-----------------------------------------------------------------|
F-6~~~~~~-6---6---6---6---6---6---6---6---6---6---6---6---6---6---|
C-----------------------------------------------------------------|
G-----------------------------------------------------------------|
C-----------------------------------------------------------------|

==================================================================

Guitar 1
D-----------------------------------------------------------------|
A-----------------------------------------------------------------|
F-----------------------------------------------------------------|
C-4-------4---4---------------4-------4---------------7---7---7---|
G-4-------4---4---------------4-------4---------------7---7---7---|
C-4-------4---4---------------4-------4---------------7---7---7---|
Pm.       .   .               .       .               .   .   .

Guitar 2
D-----------------------------------------------------------------|
A-----------------------------------------------------9---9---9---|
F-6---6---6---6---6---6---6---6---6---9---9---9---9---------------|
C-----------------------------------------------------------------|
G-----------------------------------------------------------------|
C-----------------------------------------------------------------|

==================================================================

Guitar 1
D-----------------------------------------------------------------|
A-----------------------------------------------------------------|
F-----------------------------------------------------------------|
C-0-------0---0---------------0-------0---------------0---0---0---|
G-0-------0---0---------------0-------0---------------0---0---0---|
C-0-------0---0---------------0-------0---------------0---0---0---|
Pm.       .   .               .       .               .   .   .

Guitar 2
D-----------------------------------------------------------------|
A-10--10--10--10--10--10--10--10--10--10--10--10--10--10--10--10--|
F-----------------------------------------------------------------|
C-----------------------------------------------------------------|
G-----------------------------------------------------------------|
C-----------------------------------------------------------------|

==================================================================

Guitar 1
D-----------------------------------------------------------------|
A-----------------------------------------------------------------|
F-----------------------------------------------------------------|
C-0-------0---0---------------0-------2---2---2---2---2---2---2---|
G-0-------0---0---------------0-------2---2---2---2---2---2---2---|
C-2-------2---2---------------2-------2---2---2---2---2---2---2---|
Pm.       .   .               .       .   .   .   .   .   .   .

Guitar 2
D-9~~~~~~-9---9---9---9---9---9---9---7---7---7---7---7---7---7---|
A-----------------------------------------------------------------|
F-----------------------------------------------------------------|
C-----------------------------------------------------------------|
G-----------------------------------------------------------------|
C-----------------------------------------------------------------|

==================================================================
==================================================================


Verse 2

Guitar 1
D-----------------------------------------------------------------|
A-----------------------------------------------------------------|
F-----------------------------------------------------------------|
C-4-------4---4---------------4-------4---------------4---4---4---|
G-4-------4---4---------------4-------4---------------4---4---4---|
C-4-------4---4---------------4-------4---------------4---4---4---|
Pm.       .   .               .       .               .   .   .

Guitar 2
D-----------------------------------------------------------------|
A-----------------------------------------------------------------|
F-9~~~~~~~~~~~~~~~~~~~~~~~~~~~~~~~~~~~~~~~~~~~~~~~~~~~~~~~~~~~~~~-
C-x---------------------------------------------------------------
G-7~~~~~~~~~~~~~~~~~~~~~~~~~~~~~~~~~~~~~~~~~~~~~~~~~~~~~~~~~~~~~~-
C-----------------------------------------------------------------

==================================================================

Guitar 1
D-----------------------------------------------------------------|
A-----------------------------------------------------------------|
F-----------------------------------------------------------------|
C-0-------0---0---------------0-------0---------------0---0---0---|
G-0-------0---0---------------0-------0---------------0---0---0---|
C-0-------0---0---------------0-------0---------------0---0---0---|
Pm.       .   .               .       .               .   .   .

==================================================================

Guitar 1
D-----------------------------------------------------------------|
A-----------------------------------------------------------------|
F-----------------------------------------------------------------|
C-0-------0---0---------------0-------0---------------0---0---0---|
G-0-------0---0---------------0-------0---------------0---0---0---|
C-2-------2---2---------------2-------2---------------2---2---2---|
Pm.       .   .               .       .               .   .   .

==================================================================

Guitar 1
D-----------------------------------------------------------------|
A-----------------------------------------------------------------|
F-----------------------------------------------------------------|
C-2-------2---2---------------2-------2---------------2---2---2---|
G-2-------2---2---------------2-------2---------------2---2---2---|
C-2-------2---2---------------2-------2---------------2---2---2---|
Pm.       .   .               .       .               .   .   .

Guitar 2
D-----------------------------------------------------------------|
A-----------------------------------------------------9---10------|
F-------------------------------------------------------------9---|
C-----------------------------------------------------------------|
G-----------------------------------------------------------------|
C-----------------------------------------------------------------|

==================================================================

Guitar 1
D-----------------------------------------------------------------|
A-----------------------------------------------------------------|
F-----------------------------------------------------------------|
C-4-------4---4---------------4-------4---------------4---4---4---|
G-4-------4---4---------------4-------4---------------4---4---4---|
C-4-------4---4---------------4-------4---------------4---4---4---|
Pm.       .   .               .       .               .   .   .

Guitar 2
D-------------7~~~~~~~~~~~~~~~~~~~~~~~~~~~~~~~~~~~~~~---------9~~~-|
A-10~~~~~~~~~------------------------------------------------------|
F-----------------------------------------------------9~~~~~~------|
C------------------------------------------------------------------|
G------------------------------------------------------------------|
C------------------------------------------------------------------|

==================================================================

Guitar 1
D-----------------------------------------------------------------|
A-----------------------------------------------------------------|
F-----------------------------------------------------------------|
C-0-------0---0---------------0-------0---------------0---0---0---|
G-0-------0---0---------------0-------0---------------0---0---0---|
C-0-------0---0---------------0-------0---------------0---0---0---|
Pm.       .   .               .       .               .   .   .

Guitar 2
D-~~~~~~~~~~~-7~~~~~~~~~~~~~~~~~~~~~~~~~~~~~~~~~~~~~~--------------|
A-----------------------------------------------------9~~~~~~-10~~-|
F------------------------------------------------------------------|
C------------------------------------------------------------------|
G------------------------------------------------------------------|
C------------------------------------------------------------------|

==================================================================

Guitar 1
D-----------------------------------------------------------------|
A-----------------------------------------------------------------|
F-----------------------------------------------------------------|
C-0-------0---0---------------0-------0---------------0---0---0---|
G-0-------0---0---------------0-------0---------------0---0---0---|
C-2-------2---2---------------2-------2---------------2---2---2---|
Pm.       .   .               .       .               .   .   .

Guitar 2
D-~~~~~~~~~~~-12~~~~~~~~~~~~~~~~~~~~~~~~~~~~~~~~~~~~~-16~~~~~-17~~-|
A------------------------------------------------------------------|
F------------------------------------------------------------------|
C------------------------------------------------------------------|
G------------------------------------------------------------------|
C------------------------------------------------------------------|

==================================================================

Guitar 1
D-----------------------------------------------------------------|
A-----------------------------------------------------------------|
F-----------------------------------------------------------------|
C-2-------2---2---------------2-------2--------------/12\~~~~~~~~-|
G-2-------2---2---------------2-------2--------------/12\~~~~~~~~-|
C-2-------2---2---------------2-------2--------------/12\~~~~~~~~-|
Pm.       .   .               .       .

Guitar 2
D-~~~~~~~~~~~-----------------------------------------------------|
A-------------17~~~~~~~~~~~~~~~~~~~~~~~~~~~~~~~~~~~~~-------------|
F-----------------------------------------------------------------|
C----------------------------------------------------/12~~~~~~~~~-|
G----------------------------------------------------/12\~~~~~~~~-|
C----------------------------------------------------/12\~~~~~~~~-|

==================================================================
==================================================================


Pre Chorus 1

Guitar 1 & 2
D-----------------------------------------------------------------|
A-----------------------------------------------------------------|
F-----------------------------------------------------------------|
C-----------------------------------------------------------------|
G-----------------------------------------------------------------|
C-4---4---4---4~~~~~~-4~~~~~~-4---4---4---4---4~~~~~~-4~~~~~~-4---|

==================================================================

Guitar 1 & 2
D-----------------------------------------------------------------|
A-----------------------------------------------------------------|
F-----------------------------------------------------------------|
C-----------------------------------------------------------------|
G-----------------------------------------------------------------|
C-7---7---7---7~~~~~~-7~~~~~~-7---2---2---2---2~~~~~~-2~~~~~~-2---|

==================================================================

Guitar 1 & 2
D-----------------------------------------------------------------|
A-----------------------------------------------------------------|
F-----------------------------------------------------------------|
C-----------------------------------------------------------------|
G-----------------------------------------------------------------|
C-0---0---0---0~~~~~~-0~~~~~~-0---0---0---0---0~~~~~~-0~~~~~~-0---|

==================================================================

Guitar 1 & 2
D-----------------------------------------------------------------|
A-----------------------------------------------------------------|
F-----------------------------------------------------------------|
C-----------------------------------------------------------------|
G-----------------------------------------------------------------|
C-7---7---7---7~~~~~~-7~~~~~~-7---2---2---2---2~~~~~~-2~~~~~~-2---|

==================================================================

Guitar 1
D-----------------------------------------------------------------|
A-----------------------------------------------------------------|
F-----------------------------------------------------------------|
C-4~~~~~~~~~~~~~~~~~~~~~~-x---x---2~~~~~~~~~~~~~~~~~~~~~~~~~~~~~~-|
G-4~~~~~~~~~~~~~~~~~~~~~~-x---x---2~~~~~~~~~~~~~~~~~~~~~~~~~~~~~~-|
C-4~~~~~~~~~~~~~~~~~~~~~~-x---x---2~~~~~~~~~~~~~~~~~~~~~~~~~~~~~~-|

Guitar 2
D-----------------------------------------------------------------|
A-----------------------------------------------------------------|
F---------------------------------------------------------0/~~~~~-|
C-4~~~~~~~~~~~~~~~~~~~~~~-x---x---2~~~~~~~~~~~~~~~~~~~~~~---------|
G-4~~~~~~~~~~~~~~~~~~~~~~-x---x---2~~~~~~~~~~~~~~~~~~~~~~---------|
C-4~~~~~~~~~~~~~~~~~~~~~~-x---x---2~~~~~~~~~~~~~~~~~~~~~~---------|

==================================================================
==================================================================


Chorus 1

(x2)

Guitar 1 & 2
D-----------------------------------------------------------------|
A-----------------------------------------------------------------|
F-----------------------------------------------------------------|
C-7---7---7---7---7---7---7---7---6---6---6---6---6---6---6---0---|
G-7---7---7---7---7---7---7---7---6---6---6---6---6---6---6---0---|
C-7---7---7---7---7---7---7---7---6---6---6---6---6---6---6---0---|

==================================================================

Guitar 1 & 2
D-----------------------------------------------------------------|
A-----------------------------------------------------------------|
F-----------------------------------------------------------------|
C-4---4---4---4---4---4---4---0---2---2---2---2---2---2---2---2---|
G-4---4---4---4---4---4---4---0---2---2---2---2---2---2---2---2---|
C-4---4---4---4---4---4---4---0---2---2---2---2---2---2---2---2---|

==================================================================
==================================================================


Bridge 2

Guitar 1
D-----------------------------------------------------------------|
A-----------------------------------------------------------------|
F-9---9---9---9---9---9---9---9---9---9---9---9---9---9---9---9---|
C-x---x---x---x---x---x---x---x---x---x---x---x---x---x---x---x---|
G-7---7---7---7---7---7---7---7---7---7---7---7---7---7---7---7---|
C-----------------------------------------------------------------|

Guitar 2
D-----------------------------------------------------------------|
A-10--10--10--10--10--10--10--10--10--10--10--10--10--10--10--10--|
F-x---x---x---x---x---x---x---x---x---x---x---x---x---x---x---x---|
C-7---7---7---7---7---7---7---7---7---7---7---7---7---7---7---7---|
G-----------------------------------------------------------------|
C-----------------------------------------------------------------|

==================================================================

Guitar 1
D-----------------------------------------------------------------|
A-----------------------------------------------------------------|
F-9---9---9---9---9---9---9---9---9---9---9---9-------------------|
C-x---x---x---x---x---x---x---x---x---x---x---x---x---x---x---x---|
G-7---7---7---7---7---7---7---7---7---7---7---7---x---x---x---x---|
C-------------------------------------------------x---x---x---x---|

Guitar 2
D-----------------------------------------------------------------|
A-9---9---9---9---9---9---9---9-----------------------------------|
F-x---x---x---x---x---x---x---x---9---9---9---9-------------------|
C-6---6---6---6---6---6---6---6---x---x---x---x---x---x---x---x---|
G---------------------------------7---7---7---7---x---x---x---x---|
C-------------------------------------------------x---x---x---x---|

==================================================================
==================================================================


Breakdown

Guitar 1 & 2
D-----------------------------------------------------------------|
A-----------------------------------------------------------------|
F-----------------------------------------------------------------|
C-0-0-0-0-0-------0---0-0-0-0-0-0-0-------0-0-0-0-0-0-0-0-0-0-0-0-|
G-0-0-0-0-0-------0---0-0-0-0-0-0-0-------0-0-0-0-0-0-0-0-0-0-0-0-|
C-0-0-0-0-0-------0---0-0-0-0-0-0-0-------0-0-0-0-0-0-0-0-0-0-0-0-|
Pm. . . . .       .   . . . . . . .       . . . . . . . . . . . .

==================================================================

Guitar 1 & 2
D-----------------------------------------------------------------|
A-----------------------------------------------------------------|
F-----------------------------------------------------------------|
C-0-0-0-0-0---x-x-x---0-0-0-0-0-0-0---0---0-0-0-0-0-0-0-0/12\~~~~-|
G-0-0-0-0-0---x-x-x---0-0-0-0-0-0-0---0---0-0-0-0-0-0-0-0/12\~~~~-|
C-0-0-0-0-0---x-x-x---0-0-0-0-0-0-0---0---0-0-0-0-0-0-0-0/12\~~~~-|
Pm. . . . .           . . . . . . .   .   . . . . . . . .

==================================================================

Guitar 1 & 2
D-----------------------------------------------------------------|
A-----------------------------------------------------------------|
F-----------------------------------------------------------------|
C-0-0-0-0-0~~~~~~-0~~-0-0-0-0-0-0-0~~~~~~-0-0-0-0-0-0-0-0-0-0-0-0-|
G-0-0-0-0-0~~~~~~-0~~-0-0-0-0-0-0-0~~~~~~-0-0-0-0-0-0-0-0-0-0-0-0-|
C-0-0-0-0-0~~~~~~-0~~-0-0-0-0-0-0-0~~~~~~-0-0-0-0-0-0-0-0-0-0-0-0-|
Pm. . . . .       .   . . . . . . .       . . . . . . . . . . . .

==================================================================

Guitar 1 & 2
D-----------------------------------------------------------------|
A-----------------------------------------------------------------|
F-----------------------------------------------------------------|
C-0-0-0-0-0~~-x-x-x---0-0-0-0-0-0-0---0---0-0-0-0-0-0-0-0---------|
G-0-0-0-0-0~~-x-x-x---0-0-0-0-0-0-0---0---0-0-0-0-0-0-0-0---------|
C-0-0-0-0-0~~-x-x-x---0-0-0-0-0-0-0---0---0-0-0-0-0-0-0-0---------|
Pm. . . . .           . . . . . . .   .   . . . . . . . .

==================================================================
==================================================================


Pre Chorus 2

Guitar 1
D-----------------------------------------------------------------|
A-----------------------------------------------------------------|
F-----------------------------------------------------------------|
C-0~~~~~~~~~~~~~~~~~~~~~~~~~~~~~~-2---2---2---2---2---2-----------|
G-0~~~~~~~~~~~~~~~~~~~~~~~~~~~~~~-2---2---2---2---2---2-----------|
C-0~~~~~~~~~~~~~~~~~~~~~~~~~~~~~~-2---2---2---2---2---2---2/~~~~~-|
Pm                                    .   .   .   .   .

Guitar 2
D-----------------------------------------------------------------|
A-----------------------------------------------------------------|
F---------------------------------------------------------0/~~~~~-|
C-0~~~~~~~~~~~~~~~~~~~~~~~~~~~~~~-2---2---2---2---2---2-----------|
G-0~~~~~~~~~~~~~~~~~~~~~~~~~~~~~~-2---2---2---2---2---2-----------|
C-0~~~~~~~~~~~~~~~~~~~~~~~~~~~~~~-2---2---2---2---2---2-----------|
Pm                                    .   .   .   .   .

==================================================================
==================================================================


Chorus 2

(x4)

Guitar 1 & 2
D-----------------------------------------------------------------|
A-----------------------------------------------------------------|
F-----------------------------------------------------------------|
C-7---7---7---7---7---7---7---7---6---6---6---6---6---6---6---0---|
G-7---7---7---7---7---7---7---7---6---6---6---6---6---6---6---0---|
C-7---7---7---7---7---7---7---7---6---6---6---6---6---6---6---0---|

==================================================================

Guitar 1 & 2
D-----------------------------------------------------------------|
A-----------------------------------------------------------------|
F-----------------------------------------------------------------|
C-4---4---4---4---4---4---4---0---2---2---2---2---2---2---2---2---|
G-4---4---4---4---4---4---4---0---2---2---2---2---2---2---2---2---|
C-4---4---4---4---4---4---4---0---2---2---2---2---2---2---2---2---|

==================================================================
==================================================================


Outro

Guitar 1
D-----------------------------------------------------------------|
A-----------------------------------------------------------------|
F-----------------------------------------------------------------|
C-4-------4---4---------------4-------4---------------4---4---4---|
G-4-------4---4---------------4-------4---------------4---4---4---|
C-4-------4---4---------------4-------4---------------4---4---4---|
Pm.       .   .               .       .               .   .   .

Guitar 2
D-------------12~~~~~~~~~~~~~-------------------------------------|
A-10~~~~~-10------------------10~~~~~-10~~~~~-10~~~~~-10~~~~~-10--|
F-----------------------------------------------------------------|
C-----------------------------------------------------------------|
G-----------------------------------------------------------------|
C-----------------------------------------------------------------|

==================================================================

Guitar 1
D-----------------------------------------------------------------|
A-----------------------------------------------------------------|
F-----------------------------------------------------------------|
C-4-------4---4---------------4-------4---------------4---4---4---|
G-4-------4---4---------------4-------4---------------4---4---4---|
C-4-------4---4---------------4-------4---------------4---4---4---|
Pm.       .   .               .       .               .   .   .

Guitar 2
D-----------------------------------------------------------------|
A-9~~~~~~-9---10~~~~~~~~~~~~~-10~~~~~-10~~~~~-10~~~~~-10~~~~~-10--|
F-----------------------------------------------------------------|
C-----------------------------------------------------------------|
G-----------------------------------------------------------------|
C-----------------------------------------------------------------|

==================================================================

Guitar 1
D-----------------------------------------------------------------|
A-----------------------------------------------------------------|
F-----------------------------------------------------------------|
C-0-------0---0---------------0-------0---------------0---0---0---|
G-0-------0---0---------------0-------0---------------0---0---0---|
C-0-------0---0---------------0-------0---------------0---0---0---|
Pm.       .   .               .       .               .   .   .

Guitar 2
D-------------12~~~~~~~~~~~~~-------------------------------------|
A-10~~~~~-10------------------10~~~~~-10~~~~~-10~~~~~-10~~~~~-10--|
F-----------------------------------------------------------------|
C-----------------------------------------------------------------|
G-----------------------------------------------------------------|
C-----------------------------------------------------------------|

==================================================================

Guitar 1
D-----------------------------------------------------------------|
A-----------------------------------------------------------------|
F-----------------------------------------------------------------|
C-7-------7---7---------------7-------2---2---2---2---2---2---2---|
G-7-------7---7---------------7-------2---2---2---2---2---2---2---|
C-7-------7---7---------------7-------2---2---2---2---2---2---2---|
Pm.       .   .               .       .   .   .   .   .   .   .

Guitar 2
D-------------9~~~~~~-9~~~~~~~~~~~~~~-10~~~~~-9~~~~~~~~~~~~~~~~~~-|
A-----12~~~~~~~~~~~~~~~~~~~~~-12~~~~~~~~~~~~~~~~~~~~~-12~~~~~~~~~-|
F-----------------------------------------------------------------|
C-----------------------------------------------------------------|
G-----------------------------------------------------------------|
C-----------------------------------------------------------------|

==================================================================
==================================================================
==================================================================


Tab Legend
h  - hammer-on
p  - pull-off
/  - slide up
\  - slide down
ps/- pickslide up
ps\- pickslide down
~  - let ring
pm.- palm mute
b  - bend
r  - return from bend
t  - finger tapping
*  - harmonic
x  - dead note
^  - Whammy bar
^\ - Whammy bar (hold down)

That is all! I hope this helped, and be sure to check out my cover if you are
having problems with the tab. Thanks, oh and one last thing... ROCK OUT!!!!
Добавлено: 15.08.2013
Другие материалы по этой песне:
  • Аккорды и текст

Страница создана 25.07.2013
http://primanota.ru/close-to-home/pirates-belong-at-sea-chords.htm
Привет, Гость.
Предлагаем пройти революционный курс по гитаре.
Подарок от PrimaNota.Ru, забирай!