PrimaNota.ru - самый крупный в мире бесплатный архив песенных текстов, аккордов, табулатур и нот


Close To Home - Backstabbers Need Not Apply - таба, видео

Регистрация Запомнить меня
Войти через:  Facebook Google Twitter Vk Yandex Mail.ru

Close To Home - Backstabbers Need Not Apply - таба, видео

Печатать
Просмотров: 75
Авторы: Close to Home, Andrew Wade

----------------------------------------------------------------------------
                        Backstabbers Need Not Apply
                              Close to Home
----------------------------------------------------------------------------

This is such a relatable song. Some people out there just take advantage of their
friends and then throw them in the dumpsters once they are done. It is a sad scenario, 
but a
great song was made from it. For that, I would like to add that the lyrics are very 
moving and the guitar breakdowns are awesome. Enjoy!

Username: dkm817 (same on X box live)
Youtube Cover: http://www.youtube.com/watch?v=XstVg1Dl154
Email: guitardrums@rockfan.com

Guitar 1 Rhythmic (C G C F A D)
Guitar 2 Lead     (C G C F A D)


Tab Guide...

==================================================================
(end of measures)

==================================================================
==================================================================
(end of parts)

==================================================================
==================================================================
==================================================================
(end of song)

(If there is a “continued” it is because the numbers could not
fit on 1 line.)

Intro

Guitar 1 & 2
D-----------------------------------------------------------------|
A-----------------------------------------------------------------|
F-----------------------------------------------------------------|
C-0~~~~~~~~~~~~~~~~~~~~~~~~~~~~~~~~~~~~~~~~~~~~~~~~~~~~~~~~~~~~~~-
G-0~~~~~~~~~~~~~~~~~~~~~~~~~~~~~~~~~~~~~~~~~~~~~~~~~~~~~~~~~~~~~~-
C-0~~~~~~~~~~~~~~~~~~~~~~~~~~~~~~~~~~~~~~~~~~~~~~~~~~~~~~~~~~~~~~-

==================================================================

Guitar 1
D-----------------------------------------------------------------|
A-----------------------------------------------------------------|
F-----------------------------------------------------------------|
C-0-0-0-----0-------------------------0---0---0---0-0-0-----------|
G-0-0-0-----0-------------------------0---0---0---0-0-0-----------|
C-0-0-0-----0-------------------------0---0---0---0-0-0-----------|
Pm. . .     .                         .   .   .   . . .

Guitar 2
D-----------------------------------------------------------------|
A-10--x---10--10--x---10--10--x---10--10--x---10--10--x---10--x---|
F-----------------------------------------------------------------|
C-----------------------------------------------------------------|
G-----------------------------------------------------------------|
C-----------------------------------------------------------------|

==================================================================

Guitar 1
D-----------------------------------------------------------------|
A-----------------------------------------------------------------|
F-----------------------------------------------------------------|
C-0-0-0-----0-------------------------0---0---0---0-0-0-----------|
G-0-0-0-----0-------------------------0---0---0---0-0-0-----------|
C-0-0-0-----0-------------------------0---0---0---0-0-0-----------|
Pm. . .     .                         .   .   .   . . .

Guitar 2
D-----------------------------------------------------------------|
A-12--x---12--12--x---12--12--x---12--12--x---12--12--x---12--x---|
F-----------------------------------------------------------------|
C-----------------------------------------------------------------|
G-----------------------------------------------------------------|
C-----------------------------------------------------------------|

==================================================================

Guitar 1
D-----------------------------------------------------------------|
A-----------------------------------------------------------------|
F-----------------------------------------------------------------|
C-0-0-0-----0-------------------------0---0---0---0-0-0-----------|
G-0-0-0-----0-------------------------0---0---0---0-0-0-----------|
C-0-0-0-----0-------------------------0---0---0---0-0-0-----------|
Pm. . .     .                         .   .   .   . . .

Guitar 2
D-----------------------------------------------------------------|
A-15--x---15--15--x---15--15--x---15--15--x---15--15--x---15--x---|
F-----------------------------------------------------------------|
C-----------------------------------------------------------------|
G-----------------------------------------------------------------|
C-----------------------------------------------------------------|

==================================================================

Guitar 1
D-----------------------------------------------------------------|
A-----------------------------------------------------------------|
F-----------------------------------------------------------------|
C-0-0-0-----0-------------------------0---0---0---0-0-0-----------|
G-0-0-0-----0-------------------------0---0---0---0-0-0-----------|
C-0-0-0-----0-------------------------0---0---0---0-0-0-----------|
Pm. . .     .                         .   .   .   . . .

Guitar 2
D-12--x---12--12--x---12--12--x---12--12--x---12--12--x---12--x---|
A-----------------------------------------------------------------|
F-----------------------------------------------------------------|
C-----------------------------------------------------------------|
G-----------------------------------------------------------------|
C-----------------------------------------------------------------|

==================================================================

Guitar 1
D-----------------------------------------------------------------|
A-----------------------------------------------------------------|
F-----------------------------------------------------------------|
C-0~~~~~~~~~~~~~~~~~~~~~~~~~~~~~~~~~~~~~~~~~~~~~~~~~~~~~~~~~~~~~~-
G-0~~~~~~~~~~~~~~~~~~~~~~~~~~~~~~~~~~~~~~~~~~~~~~~~~~~~~~~~~~~~~~-
C-0~~~~~~~~~~~~~~~~~~~~~~~~~~~~~~~~~~~~~~~~~~~~~~~~~~~~~~~~~~~~~~-

Guitar 2
D-------------------------15~~~~~-14~~~~~~~~~~~~~~~~~~~~~~~~~~~~~-|
A-12~~~~~~~~~~~~~~~~~~~~~-----------------------------------------|
F-----------------------------------------------------------------|
C-----------------------------------------------------------------|
G-----------------------------------------------------------------|
C-----------------------------------------------------------------|

==================================================================
==================================================================


Verse 1

Guitar 1
D-----------------------------------------------------------------|
A-----------------------------------------------------------------|
F-----------------------------------------------------------------|
C-----------------------------------------------------------------|
G-----------------------------------------------------------------|
C-0-0-0-0-0-0-0-0-0-0-0-0-8-8-8-8-7-7-7-7-7-7-7-7-7-7-7-7-3-3-3-3-|

Guitar 2
D-----------------------------------------------------------------|
A-----------------------------------------------------------------|
F-----------------------------------------------------------------|
C-0-0-0-0-0-0-0-0-0-0-0-0-5-5-5-5-2-2-2-2-2-2-2-2-2-2-2-2-3-3-3-3-|
G-----------------------------------------------------------------|
C-----------------------------------------------------------------|

==================================================================

Guitar 1
D-----------------------------------------------------------------|
A-----------------------------------------------------------------|
F-----------------------------------------------------------------|
C-----------------------------------------------------------------|
G-----------------------------------------------------------------|
C-5-5-5-5-5-5-5-5-5-5-5-5-5-5-5-5-1-1-1-1-1-1-1-1-1-1-1-1-1-1-1-1-|

Guitar 2
D-----------------------------------------------------------------|
A-----------------------------------------------------------------|
F-----------------------------------------------------------------|
C-0-0-0-0-0-0-0-0-0-0-0-0-0-0-0-0---------------------------------|
G---------------------------------0-0-0-0-0-0-0-0-0-0-0-0-0-0-0-0-|
C-----------------------------------------------------------------|

==================================================================

Guitar 1
D-----------------------------------------------------------------|
A-----------------------------------------------------------------|
F-----------------------------------------------------------------|
C-----------------------------------------------------------------|
G-----------------------------------------------------------------|
C-0-0-0-0-0-0-0-0-0-0-0-0-8-8-8-8-7-7-7-7-7-7-7-7-7-7-7-7-3-3-3-3-|

Guitar 2
D-----------------------------------------------------------------|
A-----------------------------------------------------------------|
F-----------------5-5-5-5-2-2-2-2---------------------------------|
C-2-2-2-2-3-3-3-3-----------------0-0-0-0-3-3-3-3-2-2-2-2---------|
G---------------------------------------------------------3-3-3-3-|
C-----------------------------------------------------------------|

==================================================================

Guitar 1
D-----------------------------------------------------------------|
A-----------------------------------------------------------------|
F-----------------------------------------------------------------|
C-----------------------------------------------------------------|
G-----------------------------------------------------------------|
C-5-5-5-5-5-5-5-5-5-5-5-5-5-5-5-5-1-1-1-1-1-1-1-1-1-1-1-1-1-1-1-1-|

Guitar 2
D-----------------------------------------------------------------|
A-----------------------------------------------------------------|
F-----------------5-5-5-5-2-2-2-2---------------------------------|
C-2-2-2-2-3-3-3-3-----------------0-0-7-7-7-0-0-7-7-7-7-7-7-7-7-7-|
G-----------------------------------------------------------------|
C-----------------------------------------------------------------|

==================================================================
==================================================================


Pre Chorus 1

Guitar 1 & 2
D-----------------------------------------------------------------|
A-----------------------------------------8*~~~~~-x---x---x-x-x-x-|
F-----------------------------------------7*~~~~~-x---x---x-x-x-x-|
C-0---0-----------0-0-0-0-0-0-0-0-0---0---5*~~~~~-x---x---x-x-x-x-|
G-0---0-----------0-0-0-0-0-0-0-0-0---0---------------------------|
C-0---0-----------0-0-0-0-0-0-0-0-0---0---------------------------|
Pm.   .           . . . . . . . . .   .

==================================================================

Guitar 1 & 2
D-----------------------------------------------------------------|
A-----------------------------------------------------------------|
F-----------------------------------------2~~~~~~-----------------|
C-0---0-----------0-0-0-0-0-0-0-0-0---0---1~~~~~~-----------------|
G-0---0-----------0-0-0-0-0-0-0-0-0---0---1~~~~~~-----------------|
C-0---0-----------0-0-0-0-0-0-0-0-0---0---1~~~~~~-3---5---1---0---|
Pm.   .           . . . . . . . . .   .

==================================================================

Guitar 1 & 2
D-----------------------------------------------------------------|
A-----------------------------------------8*~~~~~-x---x---x-x-x-x-|
F-----------------------------------------7*~~~~~-x---x---x-x-x-x-|
C-0---0-----------0-0-0-0-0-0-0-0-0---0---5*~~~~~-x---x---x-x-x-x-|
G-0---0-----------0-0-0-0-0-0-0-0-0---0---------------------------|
C-0---0-----------0-0-0-0-0-0-0-0-0---0---------------------------|
Pm.   .           . . . . . . . . .   .

==================================================================

Guitar 1
D-----------------------------------------------------------------|
A-----------------------------------------------------------------|
F-----------------------------------------------------------------|
C-0---0-----------------------------------------------------------|
G-0---0-----------------------------------------------------------|
C-0---0-------0-0-7---8---7~~~~~~~~~~-3---5---3---3---5---3---1---|
Pm.   .       . .

Guitar 2
D-----------------------------------------------------------------|
A-----------------------------------------------------------------|
F-----------------------------------------------------------------|
C-0---0-----------------------------------------------------------|
G-0---0-----------------------------------------------------------|
C-0---0-------0-0-7---8---7~~~~~~~~~~-3---5---3---7---8---5---3---|
Pm.   .       . .

==================================================================
==================================================================


Chorus 1

(x2)

Guitar 1
D-----------------------------------------------------------------|
A-----------------------------------------------------------------|
F-----------------------------------------------------------------|
C-1---1---1---1---1---1---1---1---1---1---1---1---1---1---1---1---|
G-1---1---1---1---1---1---1---1---1---1---1---1---1---1---1---1---|
C-1---1---1---1---1---1---1---1---1---1---1---1---1---1---1---1---|

Guitar 2
D-----------------------------------------------------------------|
A-11--10--------------------------11--10--------------------------|
F-----------------------------------------------------------------|
C---------12--13--12--10--12--10----------12--13--12--10--12--10--|
G-----------------------------------------------------------------|
C-----------------------------------------------------------------|

==================================================================

Guitar 1
D-----------------------------------------------------------------|
A-----------------------------------------------------------------|
F-----------------------------------------------------------------|
C-5---5---5---5---5---5---5---5---5---5---5---5---5---5---5---5---|
G-5---5---5---5---5---5---5---5---5---5---5---5---5---5---5---5---|
C-5---5---5---5---5---5---5---5---5---5---5---5---5---5---5---5---|

Guitar 2
D---------------------------------------------------------10------|
A-11--8-------------------------------10--11--10--11--13------11--|
F---------------------------------12------------------------------|
C---------12--13--12--10--12--10----------------------------------|
G-----------------------------------------------------------------|
C-----------------------------------------------------------------|

==================================================================

Guitar 1
D-----------------------------------------------------------------|
A-----------------------------------------------------------------|
F-----------------------------------------------------------------|
C-8---8---8---8---8---8---8---8---8---8---8---8---8---8---8---8---|
G-8---8---8---8---8---8---8---8---8---8---8---8---8---8---8---8---|
C-8---8---8---8---8---8---8---8---8---8---8---8---8---8---8---8---|

Guitar 2
D-----------------------------------------------------------------|
A-------------------------------------------------11--11--11--11--|
F-10--10--10--10--10--10--10--10--10--10--10--10--x---x---x---x---|
C-x---x---x---x---x---x---x---x---x---x---x---x---8---8---8---8---|
G-8---8---8---8---8---8---8---8---8---8---8---8-------------------|
C-----------------------------------------------------------------|

==================================================================

Guitar 1
D-----------------------------------------------------------------|
A-----------------------------------------------------------------|
F-----------------------------------------------------------------|
C-7---7---7---7---7---7---7---7---3---3---3---3---3---3---3---3---|
G-7---7---7---7---7---7---7---7---3---3---3---3---3---3---3---3---|
C-7---7---7---7---7---7---7---7---3---3---3---3---3---3---3---3---|

Guitar 2
D-----------------------------------------------------------------|
A-10--10--10--10--10--10--10--10----------------------------------|
F-x---x---x---x---x---x---x---x---8---8---8---8---7---7---7---7---|
C-7---7---7---7---7---7---7---7---x---x---x---x---x---x---x---x---|
G---------------------------------6---6---6---6---5---5---5---5---|
C-----------------------------------------------------------------|

==================================================================
==================================================================


Bridge 1

Guitar 1
D-----------------------------------------------------------------|
A-----------------------------------------------------------------|
F-----------------------------------------------------------------|
C-1-------------------1---1---1-1---1-----------------3---3---3---|
G-1-------------------1---1---1-1---1-----------------3---3---3---|
C-1-------------------1---1---1-1---1-----------------3---3---3---|
Pm                        .   . .

Guitar 2
D-----------------------------------------------------------------|
A-----------------------------------------------------------------|
F-8---8---8---8---8---8---8---8---8---8---8---8---8---10--10--10--|
C-8---8---8---8---8---8---8---8---8---8---8---8---8---10--10--10--|
G-6---6---6---6---6---6---6---6---6---6---6---6---6---8---8---8---|
C-----------------------------------------------------------------|

==================================================================

Guitar 1
D-----------------------------------------------------------------|
A-----------------------------------------------------------------|
F-----------------------------------------------------------------|
C-0-------------------0---0---0-0---0-------------0---0---3---1---|
G-0-------------------0---0---0-0---0-------------0---0---3---1---|
C-0-------------------0---0---0-0---0-------------0---0---3---1---|
Pm                        .   . .                     .   .   .

Guitar 2
D-----------------------------------------------------------------|
A-----------------------------------------------------------------|
F-7---7---7---7---7---7---7---7---7---7---7---7---7---7---7---7---|
C-7---7---7---7---7---7---7---7---7---7---7---7---7---7---7---7---|
G-5---5---5---5---5---5---5---5---5---5---5---5---5---5---5---5---|
C-----------------------------------------------------------------|

==================================================================
==================================================================


Verse 2

Guitar 1
D-----------------------------------------------------------------|
A-----------------------------------------------------------------|
F-----------------------------------------------------------------|
C-----------------------------------------------------------------|
G-----------------------------------------------------------------|
C-0-0-0-0-0-0-0-0-0-0-0-0-8-8-8-8-7-7-7-7-7-7-7-7-7-7-7-7-3-3-3-3-|

Guitar 2
D-----------------------------------------------------------------|
A-----------------------------------------------------------------|
F-----------------------------------------------------------------|
C-0-0-0-0-0-0-0-0-0-0-0-0-5-5-5-5-2-2-2-2-2-2-2-2-2-2-2-2-3-3-3-3-|
G-----------------------------------------------------------------|
C-----------------------------------------------------------------|

==================================================================

Guitar 1
D-----------------------------------------------------------------|
A-----------------------------------------------------------------|
F-----------------------------------------------------------------|
C-----------------------------------------------------------------|
G-----------------------------------------------------------------|
C-5-5-5-5-5-5-5-5-5-5-5-5-5-5-5-5-1-1-1-1-1-1-1-1-1-1-1-1-1-1-1-1-|

Guitar 2
D-----------------------------------------------------------------|
A-----------------------------------------------------------------|
F-----------------------------------------------------------------|
C-0-0-0-0-0-0-0-0-0-0-0-0-0-0-0-0---------------------------------|
G---------------------------------0-0-0-0-0-0-0-0-0-0-0-0-0-0-0-0-|
C-----------------------------------------------------------------|

==================================================================

Guitar 1
D-----------------------------------------------------------------|
A-----------------------------------------------------------------|
F-----------------------------------------------------------------|
C-----------------------------------------------------------------|
G-----------------------------------------------------------------|
C-0-0-0-0-0-0-0-0-0-0-0-0-8-8-8-8-7-7-7-7-7-7-7-7-7-7-7-7-3-3-3-3-|

Guitar 2
D-----------------------------------------------------------------|
A-----------------------------------------------------------------|
F-----------------5-5-5-5-2-2-2-2---------------------------------|
C-2-2-2-2-3-3-3-3-----------------0-0-0-0-3-3-3-3-2-2-2-2---------|
G---------------------------------------------------------3-3-3-3-|
C-----------------------------------------------------------------|

==================================================================

Guitar 1
D-----------------------------------------------------------------|
A-----------------------------------------------------------------|
F-----------------------------------------------------------------|
C-----------------------------------------------------------------|
G-----------------------------------------------------------------|
C-5-5-5-5-5-5-5-5-5-5-5-5-5-5-5-5-1-1-1-1-1-1-1-1-1-1-1-1-1-1-1-1-|

Guitar 2
D-----------------------------------------------------------------|
A-----------------------------------------------------------------|
F-----------------5-5-5-5-2-2-2-2---------------------------------|
C-2-2-2-2-3-3-3-3-----------------0-0-7-7-7-0-0-7-7-7-7-7-7-7-7-7-|
G-----------------------------------------------------------------|
C-----------------------------------------------------------------|

==================================================================
==================================================================


Pre Chorus 2

Guitar 1 & 2
D-----------------------------------------------------------------|
A-----------------------------------------------------------------|
F-----------------------------------------------------------------|
C-0---0~~~~~~~~~~-0-0-0-0-0-0-0-0-0---0~~~~~~~~~~~~~~~~~~~~~~~~~~-|
G-0---0~~~~~~~~~~-0-0-0-0-0-0-0-0-0---0~~~~~~~~~~~~~~~~~~~~~~~~~~-|
C-0---0~~~~~~~~~~-0-0-0-0-0-0-0-0-0---0~~~~~~~~~~~~~~~~~~~~~~~~~~-|
Pm.   .           . . . . . . . . .   .

==================================================================

Guitar 1 & 2
D-----------------------------------------------------------------|
A-----------------------------------------------------------------|
F-----------------------------------------2~~~~~~-----------------|
C-0---0-----------0-0-0-0-0-0-0-0-0---0---1~~~~~~-----------------|
G-0---0-----------0-0-0-0-0-0-0-0-0---0---1~~~~~~-----------------|
C-0---0-----------0-0-0-0-0-0-0-0-0---0---1~~~~~~-3---5---1---0---|
Pm.   .           . . . . . . . . .   .

==================================================================

Guitar 1 & 2
D-----------------------------------------------------------------|
A-----------------------------------------------------------------|
F-----------------------------------------------------------------|
C-0---0~~~~~~~~~~-0-0-0-0-0-0-0-0-0---0~~~~~~~~~~~~~~~~~~~~~~~~~~-|
G-0---0~~~~~~~~~~-0-0-0-0-0-0-0-0-0---0~~~~~~~~~~~~~~~~~~~~~~~~~~-|
C-0---0~~~~~~~~~~-0-0-0-0-0-0-0-0-0---0~~~~~~~~~~~~~~~~~~~~~~~~~~-|
Pm.   .           . . . . . . . . .   .

==================================================================

Guitar 1
D-----------------------------------------------------------------|
A-----------------------------------------------------------------|
F-----------------------------------------------------------------|
C-0---0-----------------------------------------------------------|
G-0---0-----------------------------------------------------------|
C-0---0-------0-0-7---8---7~~~~~~~~~~-3---5---3---3---5---3---1---|
Pm.   .       . .

Guitar 2
D-----------------------------------------------------------------|
A-----------------------------------------------------------------|
F-----------------------------------------------------------------|
C-0---0-----------------------------------------------------------|
G-0---0-----------------------------------------------------------|
C-0---0-------0-0-7---8---7~~~~~~~~~~-3---5---3---7---8---5---3---|
Pm.   .       . .

==================================================================
==================================================================


Chorus 1

(x2)

Guitar 1
D-----------------------------------------------------------------|
A-----------------------------------------------------------------|
F-----------------------------------------------------------------|
C-1---1---1---1---1---1---1---1---1---1---1---1---1---1---1---1---|
G-1---1---1---1---1---1---1---1---1---1---1---1---1---1---1---1---|
C-1---1---1---1---1---1---1---1---1---1---1---1---1---1---1---1---|

Guitar 2
D-----------------------------------------------------------------|
A-11--10--------------------------11--10--------------------------|
F-----------------------------------------------------------------|
C---------12--13--12--10--12--10----------12--13--12--10--12--10--|
G-----------------------------------------------------------------|
C-----------------------------------------------------------------|

==================================================================

Guitar 1
D-----------------------------------------------------------------|
A-----------------------------------------------------------------|
F-----------------------------------------------------------------|
C-5---5---5---5---5---5---5---5---5---5---5---5---5---5---5---5---|
G-5---5---5---5---5---5---5---5---5---5---5---5---5---5---5---5---|
C-5---5---5---5---5---5---5---5---5---5---5---5---5---5---5---5---|

Guitar 2
D---------------------------------------------------------10------|
A-11--8-------------------------------10--11--10--11--13------11--|
F---------------------------------12------------------------------|
C---------12--13--12--10--12--10----------------------------------|
G-----------------------------------------------------------------|
C-----------------------------------------------------------------|

==================================================================

Guitar 1
D-----------------------------------------------------------------|
A-----------------------------------------------------------------|
F-----------------------------------------------------------------|
C-8---8---8---8---8---8---8---8---8---8---8---8---8---8---8---8---|
G-8---8---8---8---8---8---8---8---8---8---8---8---8---8---8---8---|
C-8---8---8---8---8---8---8---8---8---8---8---8---8---8---8---8---|

Guitar 2
D-----------------------------------------------------------------|
A-------------------------------------------------11--11--11--11--|
F-10--10--10--10--10--10--10--10--10--10--10--10--x---x---x---x---|
C-x---x---x---x---x---x---x---x---x---x---x---x---8---8---8---8---|
G-8---8---8---8---8---8---8---8---8---8---8---8-------------------|
C-----------------------------------------------------------------|

==================================================================

Guitar 1
D-----------------------------------------------------------------|
A-----------------------------------------------------------------|
F-----------------------------------------------------------------|
C-7---7---7---7---7---7---7---7---3---3---3---3---3---3---3---3---|
G-7---7---7---7---7---7---7---7---3---3---3---3---3---3---3---3---|
C-7---7---7---7---7---7---7---7---3---3---3---3---3---3---3---3---|

Guitar 2
D-----------------------------------------------------------------|
A-10--10--10--10--10--10--10--10----------------------------------|
F-x---x---x---x---x---x---x---x---8---8---8---8---7---7---7---7---|
C-7---7---7---7---7---7---7---7---x---x---x---x---x---x---x---x---|
G---------------------------------6---6---6---6---5---5---5---5---|
C-----------------------------------------------------------------|

==================================================================
==================================================================


Bridge 1

Guitar 1
D-----------------------------------------------------------------|
A-----------------------------------------------------------------|
F-----------------------------------------------------------------|
C-1-------------------1---1---1-1---1-----------------3---3---3---|
G-1-------------------1---1---1-1---1-----------------3---3---3---|
C-1-------------------1---1---1-1---1-----------------3---3---3---|
Pm                        .   . .

Guitar 2
D-----------------------------------------------------------------|
A-----------------------------------------------------------------|
F-8---8---8---8---8---8---8---8---8---8---8---8---8---10--10--10--|
C-8---8---8---8---8---8---8---8---8---8---8---8---8---10--10--10--|
G-6---6---6---6---6---6---6---6---6---6---6---6---6---8---8---8---|
C-----------------------------------------------------------------|

==================================================================

Guitar 1
D-----------------------------------------------------------------|
A-----------------------------------------------------------------|
F-----------------------------------------------------------------|
C-0-------------------0---0---0-0---0-------------0---0---3---1---|
G-0-------------------0---0---0-0---0-------------0---0---3---1---|
C-0-------------------0---0---0-0---0-------------0---0---3---1---|
Pm                        .   . .                     .   .   .

Guitar 2
D-----------------------------------------------------------------|
A-----------------------------------------------------------------|
F-7---7---7---7---7---7---7---7---7---7---7---7---7---7---7---7---|
C-7---7---7---7---7---7---7---7---7---7---7---7---7---7---7---7---|
G-5---5---5---5---5---5---5---5---5---5---5---5---5---5---5---5---|
C-----------------------------------------------------------------|

==================================================================
==================================================================


Breakdown 1

Guitar 1 & 2
D-----------------------------------------------------------------|
A-----------------------------------------------------------------|
F-----------------------------------------------------------------|
C-0~~~~~~~~~~~~~~~~~~~~~~~~~~~~~~~~~~~~~~~~~~~~~~~~~~~~~~~~~~~~~~-
G-0~~~~~~~~~~~~~~~~~~~~~~~~~~~~~~~~~~~~~~~~~~~~~~~~~~~~~~~~~~~~~~-
C-0~~~~~~~~~~~~~~~~~~~~~~~~~~~~~~~~~~~~~~~~~~~~~~~~~~~~~~~~~~~~~~-

==================================================================

Guitar 1
D-----------------------------------------------------------------|
A-----------------------------------------------------------------|
F-----------------------------------------------------------------|
C-----------------------------------------------------------------|
G-----------------------------------------------------------------|
C-0-0---0-0-------0-0-0-0-0-----------0-0---0-0-------0-0---0-0---|
Pm. .   . .       . . . . .           . .   . .       . .   . .

Guitar 2
D-----------------------------------------------------------------|
A-----------------------------------------------------------------|
F-----------------------------------------------------------------|
C-~~~~~~~~~~~~~~~~~~~~~~~~~~~~~~~~~~~~~~~~~~~~~~~~~~~~~~~~~~~~~~~-
G-~~~~~~~~~~~~~~~~~~~~~~~~~~~~~~~~~~~~~~~~~~~~~~~~~~~~~~~~~~~~~~~-
C-~~~~~~~~~~~~~~~~~~~~~~~~~~~~~~~~~~~~~~~~~~~~~~~~~~~~~~~~~~~~~~~-

==================================================================

Guitar 1 & 2
D-----------------------------------------------------------------|
A-----------------------------------------------------------------|
F-----------------------------------------------------------------|
C-----------------------------------------------------------------|
G-----------------------------------------------------------------|
C-0-0---0-0-------0-0-0-0-0-----------0-0---0-0-------0-0---0-0---|
Pm. .   . .       . . . . .           . .   . .       . .   . .

==================================================================

Guitar 1 & 2
D-----------------------------------------------------------------|
A-----------------------------------------------------------------|
F-----------------------------------------------------------------|
C-----------------------------------------------------------------|
G-----------------------------------------------------------------|
C-0---------------------------------------------------------------|
Pm.

==================================================================
==================================================================


Breakdown 2

Guitar 1
D-----------------------------------------------------------------|
A-----------------------------------------------------------------|
F-----------------------------------------------------------------|
C-----------------------------------------------------------------|
G-----------------------------------------------------------------|
C-0-0---0-0-------0-0-0-0-0-----------0-0---0-0-------0-0---0-0---|
Pm. .   . .       . . . . .           . .   . .       . .   . .

Guitar 2 (Echo Effect)
D-----------------------------------------------------------------|
A-8-------8---8-------8---8-------11------11--10------11--10--8---|
F-----------------------------------------------------------------|
C-----0-----------0-----------0-------0-----------0---------------|
G-----------------------------------------------------------------|
C-----------------------------------------------------------------|
Pm    .           .           .       .           .

==================================================================

Guitar 1
D-----------------------------------------------------------------|
A-----------------------------------------------------------------|
F-----------------------------------------------------------------|
C-----------------------------------------------------------------|
G-----------------------------------------------------------------|
C-0-0---0-0-------0-0-0-0-0-----------0-0---0-0---3---3---3---3---|
Pm. .   . .       . . . . .           . .   . .

Guitar 2
D-----------------------------------------------------------------|
A-----------------------------------------------------------------|
F-7-------7---7-------7---10------5-------5---5-------5-----------|
C-----0-----------0-----------0-------0-----------0-------7---0---|
G-----------------------------------------------------------------|
C-----------------------------------------------------------------|
Pm    .           .           .       .           .           .

==================================================================

Guitar 1
D-----------------------------------------------------------------|
A-----------------------------------------------------------------|
F-----------------------------------------------------------------|
C-----------------------------------------------------------------|
G-----------------------------------------------------------------|
C-0-0---0-0-------0-0-0-0-0-----------0-0---0-0-------0-0---0-0---|
Pm. .   . .       . . . . .           . .   . .       . .   . .

Guitar 2
D-----------------------------------------------------------------|
A-8-------8---8-------8---8-------11------11--10------11--10--8---|
F-----------------------------------------------------------------|
C-----0-----------0-----------0-------0-----------0---------------|
G-----------------------------------------------------------------|
C-----------------------------------------------------------------|
Pm    .           .           .       .           .

==================================================================

Guitar 1
D-----------------------------------------------------------------|
A-----------------------------------------------------------------|
F-----------------------------------------------------------------|
C-----------------------------------------------------------------|
G-----------------------------------------------------------------|
C-0-0---0-0-------0-0-0-0-0-----------0-0---0-0-------------------|
Pm. .   . .       . . . . .           . .   . .

Guitar 2
D-----------------------------------------------------------------|
A-----------------------------------------------------------------|
F-7-------7---7-------7---10/~~~~-14--14--14--14--12--12--12--12--|
C-----0-----------0---------------x---x---x---x---x---x---x---x---|
G---------------------------------12--12--12--12--10--10--10--10--|
C-----------------------------------------------------------------|
Pm    .           .

==================================================================
==================================================================


Interlude

Guitar 1 & 2
D-----------------------------------------------------------------|
A-----------------------------------------------------------------|
F-----------------------------------------------------------------|
C-x-x-5---5---x-x-5---5---x-x-5---x-x-5---5---x-x-5---5---x-x-5---|
G-x-x-5---5---x-x-5---5---x-x-5---x-x-5---5---x-x-5---5---x-x-5---|
C-x-x-5---5---x-x-5---5---x-x-5---x-x-5---5---x-x-5---5---x-x-5---|

==================================================================

Guitar 1 & 2
D-----------------------------------------------------------------|
A-----------------------------------------------------------------|
F-----------------------------------------------------------------|
C-x-x-8---8---x-x-8---8---x-x-8---x-x-7---7---x-x-----------------|
G-x-x-8---8---x-x-8---8---x-x-8---x-x-7---7---x-x-----------------|
C-x-x-8---8---x-x-8---8---x-x-8---x-x-7---7---x-x-7---3---3---3---|

==================================================================

Guitar 1 & 2
D-----------------------------------------------------------------|
A-----------------------------------------------------------------|
F-----------------------------------------------------------------|
C-x-x-5---5---x-x-5---5---x-x-5---x-x-5---5---x-x-5---5---x-x-5---|
G-x-x-5---5---x-x-5---5---x-x-5---x-x-5---5---x-x-5---5---x-x-5---|
C-x-x-5---5---x-x-5---5---x-x-5---x-x-5---5---x-x-5---5---x-x-5---|

==================================================================

Guitar 1 & 2
D-----------------------------------------------------------------|
A-----------------------------------------------------------------|
F---------------------------------x-x-7---7---x-x-5---5---x-x-5---|
C-x-x-8---8---x-x-8---8---x-x-8---x-x-7---7---x-x-5---5---x-x-5---|
G-x-x-8---8---x-x-8---8---x-x-8---x-x-5---5---x-x-3---3---x-x-3---|
C-x-x-8---8---x-x-8---8---x-x-8-----------------------------------|

==================================================================

Guitar 1 & 2
D-----------------------------------------------------------------|
A-----------------------------------------------------------------|
F-----------------------------------------------------------------|
C-x-x-5---5---x-x-5---5---x-x-5---x-x-5---5---x-x-5---5---x-x-5---|
G-x-x-5---5---x-x-5---5---x-x-5---x-x-5---5---x-x-5---5---x-x-5---|
C-x-x-5---5---x-x-5---5---x-x-5---x-x-5---5---x-x-5---5---x-x-5---|

==================================================================

Guitar 1 & 2
D-----------------------------------------------------------------|
A-----------------------------------------------------------------|
F-----------------------------------------------------------------|
C-x-x-8---8---x-x-8---8---x-x-8---x-x-7---7---x-x-----------------|
G-x-x-8---8---x-x-8---8---x-x-8---x-x-7---7---x-x-----------------|
C-x-x-8---8---x-x-8---8---x-x-8---x-x-7---7---x-x-7---3---3---3---|

==================================================================

Guitar 1 & 2
D-----------------------------------------------------------------|
A-----------------------------------------------------------------|
F-----------------------------------------------------------------|
C-----------------5---5---x-x-5---x-x-5---5---x-x-5---5---x-x-5---|
G-----------------5---5---x-x-5---x-x-5---5---x-x-5---5---x-x-5---|
C-----------------5---5---x-x-5---x-x-5---5---x-x-5---5---x-x-5---|

==================================================================

Guitar 1 & 2
D-----------------------------------------------------------------|
A-----------------------------------------------------------------|
F---------------------------------x-x-7---7---x-x-5---5---x-x-5---|
C-x-x-8---8---x-x-8---8---x-x-8---x-x-7---7---x-x-5---5---x-x-5---|
G-x-x-8---8---x-x-8---8---x-x-8---x-x-5---5---x-x-3---3---x-x-3---|
C-x-x-8---8---x-x-8---8---x-x-8-----------------------------------|

==================================================================

Guitar 1 & 2
D-----------------------------------------------------------------|
A-----------------------------------------------------------------|
F-8~~~~~~~~~~~~~~~~~~~~~~~~~~~~~~~~~~~~~~~~~~~~~~~~~~~~~~~~~~~~~~-
C-8~~~~~~~~~~~~~~~~~~~~~~~~~~~~~~~~~~~~~~~~~~~~~~~~~~~~~~~~~~~~~~-
G-6~~~~~~~~~~~~~~~~~~~~~~~~~~~~~~~~~~~~~~~~~~~~~~~~~~~~~~~~~~~~~~-
C-----------------------------------------------------------------

==================================================================
==================================================================


Chorus 2

Guitar 1 & 2
D-----------------------------------------------------------------|
A-----------------------------------------------------------------|
F-----------------------------------------------------------------|
C---------------------------------ps\~~~~~~~~~~~~~~~~~~~~~~~~~~~~-|
G---------------------------------ps\~~~~~~~~~~~~~~~~~~~~~~~~~~~~-|
C---------------------------------ps\~~~~~~~~~~~~~~~~~~~~~~~~~~~~-|

==================================================================

Guitar 1
D-----------------------------------------------------------------|
A-----------------------------------------------------------------|
F-----------------------------------------------------------------|
C-5---5---5---5---5---5---5---5---5---5---5---5---5---5---5---5---|
G-5---5---5---5---5---5---5---5---5---5---5---5---5---5---5---5---|
C-5---5---5---5---5---5---5---5---5---5---5---5---5---5---5---5---|

Guitar 2
D---------------------------------------------------------10------|
A-11--8-------------------------------10--11--10--11--13------11--|
F---------------------------------12------------------------------|
C---------12--13--12--10--12--10----------------------------------|
G-----------------------------------------------------------------|
C-----------------------------------------------------------------|

==================================================================

Guitar 1
D-----------------------------------------------------------------|
A-----------------------------------------------------------------|
F-----------------------------------------------------------------|
C-8---8---8---8---8---8---8---8---8---8---8---8---8---8---8---8---|
G-8---8---8---8---8---8---8---8---8---8---8---8---8---8---8---8---|
C-8---8---8---8---8---8---8---8---8---8---8---8---8---8---8---8---|

Guitar 2
D-----------------------------------------------------------------|
A-------------------------------------------------11--11--11--11--|
F-10--10--10--10--10--10--10--10--10--10--10--10--x---x---x---x---|
C-x---x---x---x---x---x---x---x---x---x---x---x---8---8---8---8---|
G-8---8---8---8---8---8---8---8---8---8---8---8-------------------|
C-----------------------------------------------------------------|

==================================================================

Guitar 1
D-----------------------------------------------------------------|
A-----------------------------------------------------------------|
F-----------------------------------------------------------------|
C-7---7---7---7---7---7---7---7---3---3---3---3---3---3---3---3---|
G-7---7---7---7---7---7---7---7---3---3---3---3---3---3---3---3---|
C-7---7---7---7---7---7---7---7---3---3---3---3---3---3---3---3---|

Guitar 2
D-----------------------------------------------------------------|
A-10--10--10--10--10--10--10--10----------------------------------|
F-x---x---x---x---x---x---x---x---8---8---8---8---7---7---7---7---|
C-7---7---7---7---7---7---7---7---x---x---x---x---x---x---x---x---|
G---------------------------------6---6---6---6---5---5---5---5---|
C-----------------------------------------------------------------|

==================================================================

Guitar 1
D-----------------------------------------------------------------|
A-----------------------------------------------------------------|
F-----------------------------------------------------------------|
C-1---1---1---1---1---1---1---1---1---1---1---1---1---1---1---1---|
G-1---1---1---1---1---1---1---1---1---1---1---1---1---1---1---1---|
C-1---1---1---1---1---1---1---1---1---1---1---1---1---1---1---1---|

Guitar 2
D-----------------------------------------------------------------|
A-11--10--------------------------11--10--------------------------|
F-----------------------------------------------------------------|
C---------12--13--12--10--12--10----------12--13--12--10--12--10--|
G-----------------------------------------------------------------|
C-----------------------------------------------------------------|

==================================================================

Guitar 1
D-----------------------------------------------------------------|
A-----------------------------------------------------------------|
F-----------------------------------------------------------------|
C-5---5---5---5---5---5---5---5---5---5---5---5---5---5---5---5---|
G-5---5---5---5---5---5---5---5---5---5---5---5---5---5---5---5---|
C-5---5---5---5---5---5---5---5---5---5---5---5---5---5---5---5---|

Guitar 2
D---------------------------------------------------------10------|
A-11--8-------------------------------10--11--10--11--13------11--|
F---------------------------------12------------------------------|
C---------12--13--12--10--12--10----------------------------------|
G-----------------------------------------------------------------|
C-----------------------------------------------------------------|

==================================================================

Guitar 1
D-----------------------------------------------------------------|
A-----------------------------------------------------------------|
F-----------------------------------------------------------------|
C-8---8---8---8---8---8---8---8---8---8---8---8---8---8---8---8---|
G-8---8---8---8---8---8---8---8---8---8---8---8---8---8---8---8---|
C-8---8---8---8---8---8---8---8---8---8---8---8---8---8---8---8---|

Guitar 2
D-----------------------------------------------------------------|
A-------------------------------------------------11--11--11--11--|
F-10--10--10--10--10--10--10--10--10--10--10--10--x---x---x---x---|
C-x---x---x---x---x---x---x---x---x---x---x---x---8---8---8---8---|
G-8---8---8---8---8---8---8---8---8---8---8---8-------------------|
C-----------------------------------------------------------------|

==================================================================

Guitar 1
D-----------------------------------------------------------------|
A-----------------------------------------------------------------|
F-----------------------------------------------------------------|
C-7---7---7---7---7---7---7---7---3---3---3---3---3---3---3---3---|
G-7---7---7---7---7---7---7---7---3---3---3---3---3---3---3---3---|
C-7---7---7---7---7---7---7---7---3---3---3---3---3---3---3---3---|

Guitar 2
D-----------------------------------------------------------------|
A-10--10--10--10--10--10--10--10----------------------------------|
F-x---x---x---x---x---x---x---x---8---8---8---8---7---7---7---7---|
C-7---7---7---7---7---7---7---7---x---x---x---x---x---x---x---x---|
G---------------------------------6---6---6---6---5---5---5---5---|
C-----------------------------------------------------------------|

==================================================================
==================================================================


Bridge 2

Guitar 1
D-----------------------------------------------------------------|
A-----------------------------------------------------------------|
F-----------------------------------------------------------------|
C-1-------------------1---1---1-1---1-----------------3---3---3---|
G-1-------------------1---1---1-1---1-----------------3---3---3---|
C-1-------------------1---1---1-1---1-----------------3---3---3---|
Pm                        .   . .

Guitar 2
D-----------------------------------------------------------------|
A-----------------------------------------------------------------|
F-8---8---8---8---8---8---8---8---8---8---8---8---8---10--10--10--|
C-8---8---8---8---8---8---8---8---8---8---8---8---8---10--10--10--|
G-6---6---6---6---6---6---6---6---6---6---6---6---6---8---8---8---|
C-----------------------------------------------------------------|

==================================================================

Guitar 1
D-----------------------------------------------------------------|
A-----------------------------------------------------------------|
F-----------------------------------------------------------------|
C-0-------------------0---0---0-0---0-----------------3---3---3---|
G-0-------------------0---0---0-0---0-----------------3---3---3---|
C-0-------------------0---0---0-0---0-----------------3---3---3---|
Pm                        .   . .

Guitar 2
D-----------------------------------------------------------------|
A-----------------------------------------------------------------|
F-7---7---7---7---7---7---7---7---7---7---7---7---7---7---7---7---|
C-7---7---7---7---7---7---7---7---7---7---7---7---7---7---7---7---|
G-5---5---5---5---5---5---5---5---5---5---5---5---5---5---5---5---|
C-----------------------------------------------------------------|

==================================================================

Guitar 1
D-----------------------------------------------------------------|
A-----------------------------------------------------------------|
F-----------------------------------------------------------------|
C-1-------------------1---1---1-1---1-----------------3---3---3---|
G-1-------------------1---1---1-1---1-----------------3---3---3---|
C-1-------------------1---1---1-1---1-----------------3---3---3---|
Pm                        .   . .

Guitar 2
D-----------------------------------------------------------------|
A-----------------------------------------------------------------|
F-8---8---8---8---8---8---8---8---8---8---8---8---8---10--10--10--|
C-8---8---8---8---8---8---8---8---8---8---8---8---8---10--10--10--|
G-6---6---6---6---6---6---6---6---6---6---6---6---6---8---8---8---|
C-----------------------------------------------------------------|

==================================================================

Guitar 1
D-----------------------------------------------------------------|
A-----------------------------------------------------------------|
F-----------------------------------------------------------------|
C-0-------------------0---0---0-0---0-------------0---0---3---1---|
G-0-------------------0---0---0-0---0-------------0---0---3---1---|
C-0-------------------0---0---0-0---0-------------0---0---3---1---|
Pm                        .   . .                     .   .   .

Guitar 2
D-----------------------------------------------------------------|
A-----------------------------------------------------------------|
F-7---7---7---7---7---7---7---7---7---7---7---7---7---7---7---7---|
C-7---7---7---7---7---7---7---7---7---7---7---7---7---7---7---7---|
G-5---5---5---5---5---5---5---5---5---5---5---5---5---5---5---5---|
C-----------------------------------------------------------------|

==================================================================
==================================================================


Outro

Guitar 1
D-----------------------------------------------------------------|
A-----------------------------------------------------------------|
F-----------------------------------------------------------------|
C-1~~~~~~~~~~~~~~~~~~~~~~~~~~~~~~~~~~~~~~~~~~~~~~~~~~~~~~~~~~~~~~-|
G-1~~~~~~~~~~~~~~~~~~~~~~~~~~~~~~~~~~~~~~~~~~~~~~~~~~~~~~~~~~~~~~-|
C-1~~~~~~~~~~~~~~~~~~~~~~~~~~~~~~~~~~~~~~~~~~~~~~~~~~~~~~~~~~~~~~-|

Guitar 2
D-----------------------------------------------------------------|
A-----------------------------------------------------------------|
F-8~~~~~~~~~~~~~~~~~~~~~~~~~~~~~~~~~~~~~~~~~~~~~~~~~~~~~~~~~~~~~~-|
C-8~~~~~~~~~~~~~~~~~~~~~~~~~~~~~~~~~~~~~~~~~~~~~~~~~~~~~~~~~~~~~~-|
G-6~~~~~~~~~~~~~~~~~~~~~~~~~~~~~~~~~~~~~~~~~~~~~~~~~~~~~~~~~~~~~~-|
C-----------------------------------------------------------------|

==================================================================
==================================================================
==================================================================


Tab Legend
h  -  hammer-on
p  -  pull-off
/  -  slide up
\  -  slide down
ps/-  pickslide up
ps\-  pickslide down
~  -  let ring
pm.-  palm mute
b  -  bend
r  -  return from bend
*  -  harmonic
x  -  dead note
^  -  Whammy bar
^\ -  Whammy bar (hold down)


That is it! I hope this tab has helped you master this song and if you've got any
problems, be sure to check out my cover. Thanks, oh and one last thing... ROCK OUT!!!!
Добавлено: 21.10.2013
Вам также может быть интересно:
Другие материалы по этой песне:
  • Аккорды и текст

Страница создана 10.08.2013
http://primanota.ru/close-to-home/backstabbers-need-not-apply-chords.htm
Привет, Гость.
Предлагаем пройти революционный курс по гитаре.
Подарок от PrimaNota.Ru, забирай!