PrimaNota.ru - самый крупный в мире бесплатный архив песенных текстов, аккордов, табулатур и нот


Close To Home - All We Know - текст песни, таба, видео

Регистрация Запомнить меня
Войти через:  Facebook Google Twitter Vk Yandex Mail.ru

Close To Home - All We Know - текст песни, таба, видео

Печатать
Просмотров: 129
Уроки эстрадного вокала в Санкт-Петербурге
http://www.myspace.com/cth

hey this is my version of all we know by close to home

this is an awesome song and cool to play hope u enjoy it :)

tuning Drop C

any probs let us know :)

intro synth

--10----10-13-10-9--------10----10-13-10-9-----|
-----10------------11-10-----10------------11--|
-----------------------------------------------|
-----------------------------------------------|
-----------------------------------------------|
-----------------------------------------------|

verse
  rise and shine!
------------------------------------------------------------|
------------------------------------------------------------|
------------------------------------------------------------|
------------------------------------------------------------| x2
--0-00-00-0--0-00-00-0-000000--0-00-00-0--0-00-00-0-111111--|
--0-00-00-0--0-00-00-0-000000--0-00-00-0--0-00-00-0-111111--|

-----------------------------------|
-----------------------------------|
-----------------------------------|
------10------9-----5-----7--------|
------12-----10-----7-----8-88887--|
--000----000----000---000----------|

---------------------------------------------|
---------------------------------------------|
---------------------------------------------|
---------------------------------------------| x2
----------------------------777-7-7--333333--|
--000000887777778833333388--777-7-7--333333--|
     (tremolo picked)

------------------------------------------------------------------|
------------------------------------------------------------------|
------------------------------------------------------------------|
------------------------------------------------------------------| x2
--00-0-0-0-000000-00-0-0-0-000-0000-0-0-0-000000-00-0-0-0-111-11--|
--00-0-0-0-000000-00-0-0-0-000-0000-0-0-0-000000-00-0-0-0-111-11--|

--0~--
--3~--
--2~--
--0~--
--0~--
--0~--

chorus

---------------------------------------------------|
---------------------------------------------------|
--3----5----6----7----3----5-----------------------|
--3-x8-5-x8-6-x8-7-x8-3-x8-5-x8--------------------|
--1----3----4----5----1----3-------5-----5---------|
--------------------------------000--0-00-00-0-0---|

-------------|
-------------|
-------------|
-------------|
--0-00-00-0--|
--0-00-00-0--|

verse

----------------------------------------------------------|
----------------------------------------------------------|
----------------------------------------------------------|
----------------------------------------------------------|
--0-00-00-0-000000-0-00-00-0--0-00-00-0-000000-0-00-00-0--|
--0-00-00-0-000000-0-00-00-0--0-00-00-0-111111-0-00-00-0--|

-----------------------------------------------|
-----------------------------------------------|
-----------------------------------------------|
-----------------------------------------------|
--0-00-00-0-000000-0-00-00-0--0-00-00-0-00000--|
--0-00-00-0-000000-0-00-00-0--0-00-00-0-11111--|

-------------------------------|
-------------------------------|
-------------------------------|
--10------9-----5-----7--------|
--12-----10-----7-----8-88887--|
-----000----000---000----------|

-----------------------------------------------0~--|
-----------------------------------------------3~--|
-----------------------------------------------2~--|
--------------------------------------------x2-0~--|
----------------------------777-7-7--333333----0~--|
--000000887777778833333388--777-7-7--333333----0~--|

chorus

--------------------------------------------------|
--------------------------------------------------|
--3----5----6----7----3----5----------------------|
--3-x8-5-x8-6-x8-7-x8-3-x8-5-x8-------------------| x2
--1----3----4----5----1----3-------5-----5--------|
--------------------------------000--0-00-00-0-0--|


--------------------------------------------------------|
---5-5-5-5-5-5-5-5-544444444-5-5-5-5-5-5-5-5-544444444--|
--1010101010101010109999999910101010101010101099999999--|
--------------------------------------------------------|
--------------------------------------------------------|
--------------------------------------------------------|

breakdown

----------------------------------------------------------|
----------------------------------------------------------|
----------------------------------------------------------|
-----------------------------------------------------3/7--|
--0-0-0-0-000-00-0-0-00000000-0-0-0-0-000-00-0-0-1p0------|
--0-0-0-0-000-00-0-0-00000000-0-0-0-0-000-00-0-0----------|

----------------------------------------------------------|
-------------------------------------------------4-5------|
-----------------------------------------------------7----|
-------------------------------------------------------7--|
--0-0-0-0-000-00-0-0-00000000-0-0-0-0-000-00-0-0----------|
--0-0-0-0-000-00-0-0-00000000-0-0-0-0-000-00-0-0----------|

-------------------------------------------|
-------------------------------------------|
-------------------------------------------|
-------------------------------------------|
--0-000-000-0-00000000-0-0-0-0-000-00-0-0--|
--0-000-000-0-00000000-0-0-0-0-000-00-0-0--|

----------------------------------------------------0~--|
----------------------------------------------------3~--|
----------------------------------------------------2~--|
----------------------------------------------------0~--|
--0-0-0-0-000-00-0-0-00000000-0-0-0-0-000-00-0-0----0~--|
--0-0-0-0-000-00-0-0-00000000-0-0-0-0-000-00-0-0----0~--|

--------------------------------------------------------|
--------------------------------------------------------|
--3----5----6----7----3----5----------------------------|
--3-x8-5-x8-6-x8-7-x8-3-x8-5-x8------------------x2--0--|
--1----3----4----5----1----3-------5-----5-----------0--|
--------------------------------000--0-00-00-0-0-----0--|

outro synth

--10----10-13-10-9--------10----10-13-10-9-----|
-----10------------11-10-----10------------11--|
-----------------------------------------------|
-----------------------------------------------|
-----------------------------------------------|
-----------------------------------------------|

--10----10-13-10-9--------10----10-13-10-9-17--|
-----10------------11-10-----10----------------|
-----------------------------------------------|
-----------------------------------------------|
-----------------------------------------------|
-----------------------------------------------|


and thats it any probs let us know :)
Добавлено: 20.03.2012
Другие материалы по этой песне:
  • Аккорды и текст

Страница создана 20.03.2012
http://primanota.ru/close-to-home/all-we-know-chords.htm
Привет, Гость.
Предлагаем пройти революционный курс по гитаре.
Подарок от PrimaNota.Ru, забирай!