PrimaNota.ru - самый крупный в мире бесплатный архив песенных текстов, аккордов, табулатур и нот


Clogs - Last Song - таба, видео

Регистрация Запомнить меня
Войти через:  Facebook Google Twitter Vk Yandex Mail.ru

Clogs - Last Song - таба, видео

Печатать
Просмотров: 68
                               Last Song by Clogs ft Matt Berninger

Originally tabbed by Ex1Le, I've just rewritten it as a plain text tab and also changed some of the strings
around so that it's more playable. The best way to learn this I think is to just learn the shapes for each bar.
There aren't many shapes but they can be troublesome to change between and the length of time you have to hold
the bar on can really cramp up your hand.

Sorry for the awkward formatting, I had this as 4 bars per line on my computer and it doesn't quite fit on UG's
template so I have to put the fourth bar underneath. Hopefully it still makes sense! If you're having trouble
with it there is the .txt file hosted here: https://www.mediafire.com/?9ijnwgwp9q09s8d



                                                               「01.‾‾‾‾‾‾‾‾‾‾‾‾‾‾‾‾‾‾‾‾‾‾‾‾‾‾‾
e||----------5-----5-----5-----5-|---------5-----5-----5-----5-|---------5-----5-----5-----5-|
B||•-----------------------------|-----------------------------|-----------------------------|
G||------------------------------|-----------------------------|-----------------------------|
D||------7-8---7-8---7-8---7-8---|-----7-8---7-8---7-8---7-8---|-----7-8---7-8---7-8---7-8---|
A||•-5---------------------------|-----------------------------|-----------------------------|
E||------------------------------|-6---------------------------|-8---------------------------|


  |---------5-----5-----5-----5--||
  |-----------------------------•||
  |------------------------------||
  |-----7-8---7-8---7-8---7-8----||
  |-----------------------------•||
  |-8----------------------------||



 「02.‾‾‾‾‾‾‾‾‾‾‾‾‾‾‾‾‾‾‾‾‾‾‾‾‾‾‾
e|---------5-----5-------------|-----------------------------|---------5-----5-----5-----5-|
B|---------------------8-----8-|---------8-----8-----8---6---|-----------------------------|
G|-----------------------------|-----------------------------|-------7-----7-----7-----7---|
D|-----7-8---7-8---7-8---7-8---|-----7-8---7-8---7-8---7-----|-----------------------------|
A|-----------------------------|-----------------------------|-5---8-----8-----8-----8-----|
E|-8---------------------------|-8---------------------------|-----------------------------|


 |---------5-----5-------------|
 |---------------------8-----8-|
 |-------7-----7-----7-----7---|
 |-----------------------------|
 |-----8-----8-----8-----8-----|
 |-6---------------------------|




e|-----------------------------|-----------------------------|---------5-----5-----5-----5-|
B|---------8-----8-----6-----6-|---------6-----6-----6-------|-----------------------------|
G|-------7-----7-----7-----7---|-------7-----7-----7-----7---|-------7-----7-----7-----7---|
D|-----------------------------|-----------------------------|-----------------------------|
A|-----8-----8-----8-----8-----|-----8-----8-----8-----8-----|-5---8-----8-----8-----8-----|
E|-8---------------------------|-8---------------------------|-----------------------------|


 |---------10----10----8-----8-|
 |-----------------------------|
 |-------7-----7-----7-----7---|
 |-----------------------------|
 |-----8-----8-----8-----8-----|
 |-6---------------------------|




e|---------8-----8-----5-----5-|-----------------------------|---------5-----5-----5-----5-|
B|-----------------------------|---------8---8-6-------------|-----------------------------|
G|-------7-----7-----7-----7---|-------7---7---------7-----7-|-------7-----7-----7-----7---|
D|-----7-----7-----7-----7-----|-------------------8-----8---|-----------------------------|
A|-5---------------------------|-----8-----------8-----8-----|-5---8-----8-----8-----8-----|
E|-----------------------------|-6---------------------------|-----------------------------|


 |---------5-----5-------------|
 |---------------------8-----8-|
 |-------7-----7-----7-----7---|
 |-----------------------------|
 |-----8-----8-----8-----8-----|
 |-6---------------------------|




e|-----------------------------|-----------------------------|--------10----10----10-------|
B|---------8-----8-----6-----6-|---------6-----6-----6---6---|-----------------------------|
G|-------5-----5-----5-----5---|-------5-----5-----7---------|------10----10----10----10---|
D|-----------------------------|-----------------------------|-----------------------------|
A|-----8-----8-----8-----8-----|-----8-----8-----8-----8-----|-----8-----8-----8-----8-----|
E|-8---------------------------|-6---------------------------|-6---------------------------|


 |---13-13----13-13----13-13---|
 |---------10-------10---------|
 |-----------------------------|
 |-12--------------------------|
 |-----------------------------|
 |-----------------------------|





e|--------10----10-----8-----8-|---------8-----5-----5-----5-|---------5-----5-----5-----5-|
B|-----------------------------|-----------------------------|-----------------------------|
G|------10----10----10----10---|-------7-----7-----7-----7---|-------7-----7-----7-----7---|
D|-----------------------------|-----7-----7-----7-----7-----|-----------------------------|
A|-----8-----8-----8-----8-----|-5---------------------------|-5---8-----8-----8-----8-----|
E|-6---------------------------|-----------------------------|-----------------------------|


 |---------5-----5-------------|
 |---------------------8-----8-|
 |-------7-----7-----7-----7---|
 |-----------------------------|
 |-----8-----8-----8-----8-----|
 |-6---------------------------|




e|-----------------------------|-----------------------------|---------5-----5-----5-----5-|
B|---------8-----8-----6-----6-|---------6-----6-----6-------|-----------------------------|
G|-------7-----7-----7-----7---|-------7-----7-----7-----7---|-------7-----7-----7-----7---|
D|-----------------------------|-----------------------------|-----------------------------|
A|-----8-----8-----8-----8-----|-----8-----8-----8-----8-----|-5---8-----8-----8-----8-----|
E|-8---------------------------|-6---------------------------|-----------------------------|
                                                              If-                           

 |--------10----10-----8-----8-|
 |-----------------------------|
 |-------7-----7-----7-----7---|
 |-----------------------------|
 |-----8-----8-----8-----8-----|
 |-6---------------------------|
  this was our last song-




e|---------8-----8-----5-----5-|-----------------------------|---------5-----5-----5-----5-|
B|-----------------------------|---------8---8-6-------------|-----------------------------|
G|-------7-----7-----7-----7---|-------7---7---------7-----7-|-------7-----7-----7-----7---|
D|-----7-----7-----7-----7-----|-------------------8-----8---|-----------------------------|
A|-5---------------------------|-----8-----------8-----8-----|-5---8-----8-----8-----8-----|
E|-----------------------------|-6---------------------------|-----------------------------|
                                       what would we do then?                               

 |---------5-----5-------------|
 |---------------------8-----8-|
 |-------7-----7-----7-----7---|
 |-----------------------------|
 |-----8-----8-----8-----8-----|
 |-6---------------------------|
  This was our last song-




e|-----------------------------|-----------------------------|---------5-----5-----5-----5-|
B|---------8-----8-----6-----6-|---------6-----6-----6-------|-----------------------------|
G|-------5-----5-----5-----5---|-------7-----7-----7-----7---|-------7-----7-----7-----7---|
D|-----------------------------|-----------------------------|-----------------------------|
A|-----8-----8-----8-----8-----|-----8-----8-----8-----8-----|-5---8-----8-----8-----8-----|
E|-8---------------------------|-8---------------------------|-----------------------------|
                                what would we say-            then? If-                     

 |--------10----10-----8-----8-|
 |-----------------------------|
 |-------7-----7-----7-----7---|
 |-----------------------------|
 |-----8-----8-----8-----8-----|
 |-6---------------------------|
  this was our last time-




e|---------8-----8-----5-----5-|-----------------------------|---------5-----5-----5-----5-|
B|-----------------------------|---------8---8-6-------------|-----------------------------|
G|-------7-----7-----7-----7---|-------7---7---------7-----7-|-------7-----7-----7-----7---|
D|-----7-----7-----7-----7-----|-------------------8-----8---|-----------------------------|
A|-5---------------------------|-----8-----------8-----8-----|-5---8-----8-----8-----8-----|
E|-----------------------------|-6---------------------------|-----------------------------|
                                what would we do, what would we say then?

 |---------5-----5-------------|
 |---------------------8-----8-|
 |-------7-----7-----7-----7---|
 |-----------------------------|
 |-----8-----8-----8-----8-----|
 |-6---------------------------|




e|-----------------------------|--------10----10-----8-----8-|---------8-----8-----5-----5-|
B|---------8-----8-----6-----6-|-----------------------------|-----------------------------|
G|-------7-----7-----7-----7---|-------7-----7-----7-----7---|-------7-----7-----7-----7---|
D|-----------------------------|-----------------------------|-----7-----7-----7-----7-----|
A|-----8-----8-----8-----8-----|-----8-----8-----8-----8-----|-5---------------------------|
E|-8---------------------------|-6---------------------------|-----------------------------|


 |-----------------------------|
 |---------8---8-6-------------|
 |-------7---7---------7-----7-|
 |-------------------8-----8---|
 |-----8-----------8-----8-----|
 |-6---------------------------|




e|---------5-----5-----5-----5-|---------5-----5-------------|-----------------------------|
B|-----------------------------|---------------------8-----8-|---------8-----8-----6-----6-|
G|-------7-----7-----7-----7---|-------7-----7-----7-----7---|-------7-----7-----7-----7---|
D|-----------------------------|-----------------------------|-----------------------------|
A|-5---8-----8-----8-----8-----|-----8-----8-----8-----8-----|-----8-----8-----8-----8-----|
E|-----------------------------|-6---------------------------|-8---------------------------|


 |-----------------------------|
 |---------6-----6-----6-------|
 |-------7-----7-----7-----7---|
 |-----------------------------|
 |-----8-----8-----8-----8-----|
 |-6---------------------------|




e|---------5-----5-----5-----5-|--------10----10-----8-----8-|---------8-----8-----5-----5-|
B|-----------------------------|-----------------------------|-----------------------------|
G|-------7-----7-----7-----7---|-------7-----7-----7-----7---|-------7-----7-----7-----7---|
D|-----------------------------|-----------------------------|-----7-----7-----7-----7-----|
A|-5---8-----8-----8-----8-----|-----8-----8-----8-----8-----|-5---------------------------|
E|-----------------------------|-6---------------------------|-----------------------------|
  If-                           this was our last song-                                     

 |-----------------------------|
 |---------8---8-6-------------|
 |-------7---7---------7-----7-|
 |-------------------8-----8---|
 |-----8-----------8-----8-----|
 |-6---------------------------|
         what would we do then?




e|---------5-----5-----5-----5-|---------5-----5-------------|-----------------------------|
B|-----------------------------|---------------------8-----8-|---------8-----8-----6-----6-|
G|-------7-----7-----7-----7---|-------7-----7-----7-----7---|-------5-----5-----5-----5---|
D|-----------------------------|-----------------------------|-----------------------------|
A|-5---8-----8-----8-----8-----|-----8-----8-----8-----8-----|-----8-----8-----8-----8-----|
E|-----------------------------|-6---------------------------|-8---------------------------|
                                This was our last song-                                     

 |-----------------------------|
 |---------6-----6-----6-------|
 |-------7-----7-----7-----7---|
 |-----------------------------|
 |-----8-----8-----8-----8-----|
 |-8---------------------------|
  what would we say-




e|---------5-----5-----5-----5-|--------10----10-----8-----8-|---------8-----8-----5-----5-|
B|-----------------------------|-----------------------------|-----------------------------|
G|-------7-----7-----7-----7---|-------7-----7-----7-----7---|-------7-----7-----7-----7---|
D|-----------------------------|-----------------------------|-----7-----7-----7-----7-----|
A|-5---8-----8-----8-----8-----|-----8-----8-----8-----8-----|-5---------------------------|
E|-----------------------------|-6---------------------------|-----------------------------|
  then? If-                     this was our last time-                                     

 |-----------------------------|
 |---------8---8-6-------------|
 |-------7---7---------7-----7-|
 |-------------------8-----8---|
 |-----8-----------8-----8-----|
 |-6---------------------------|
  what would we do, what would we say...




e|---------5-----5-----5-----5-|---------5-----5-------------|-----------------------------|
B|-----------------------------|---------------------8-----8-|---------8-----8-----6-----6-|
G|-------7-----7-----7-----7---|-------7-----7-----7-----7---|-------5-----5-----5-----5---|
D|-----------------------------|-----------------------------|-----------------------------|
A|-5---8-----8-----8-----8-----|-----8-----8-----8-----8-----|-----8-----8-----8-----8-----|
E|-----------------------------|-6---------------------------|-8---------------------------|


 |-----------------------------|
 |---------6-----6-----6-------|
 |-------7-----7-----7-----7---|
 |-----------------------------|
 |-----8-----8-----8-----8-----|
 |-8---------------------------|




e|---------5-----5-----5-----5-|--------10----10-----8-----8-|---------8-----8-----5-----5-|
B|-----------------------------|-----------------------------|-----------------------------|
G|-------7-----7-----7-----7---|-------7-----7-----7-----7---|-------7-----7-----7-----7---|
D|-----------------------------|-----------------------------|-----7-----7-----7-----7-----|
A|-5---8-----8-----8-----8-----|-----8-----8-----8-----8-----|-5---------------------------|
E|-----------------------------|-6---------------------------|-----------------------------|


 |-----------------------------||
 |---------8---8-6-------------||
 |-------7---7---------5---3---||
 |-----------------3-3---3-----||
 |-----8-----------------------||
 |-6---------------------------||


I hope you enjoy this as much as I do! Good luck!
Добавлено: 25.12.2015
Вам также может быть интересно:
Другие материалы по этой песне:

Страница создана 26.10.2013
http://primanota.ru/clogs/last-song-chords.htm
Привет, Гость.
Предлагаем пройти революционный курс по гитаре.
Подарок от PrimaNota.Ru, забирай!