PrimaNota.ru - самый крупный в мире бесплатный архив песенных текстов, аккордов, табулатур и нот


Cloakroom - Starchild Skull - таба, видео

Регистрация Запомнить меня
Войти через:  Facebook Google Twitter Vk Yandex Mail.ru

Cloakroom - Starchild Skull - таба, видео

Печатать
Просмотров: 190
-------------------------------------------------------------------------------
                             Starchild Skull - Cloakroom
-------------------------------------------------------------------------------
Tabbed by: aaarons

Tuning: Drop D

Intro

e|--------------------------------------------------------------------x-x-x-x---------------------------|
B|--------------------------------------------------------------------x-x-x-x---------------------------|
G|------------------------------------------------------------------\-2-2-2-2---------------------------|
D|-12-12-12-13-14-14-14-14-14-14-14-14-14-14-14-14----12-12-12-13-14\-4-4-4-4----x2---------------------|
A|-10-10-10-11-12-12-12-12-12-12-12-12-12-12-12-12----10-10-10-11-12\-0-0-0-0---------------------------|
D|-10-10-10-11-12-12-12-12-12-12-12-12-12-12-12-12----10-10-10-11-12\-0-0-0-0---------------------------|

Verse 

e|-x------------x--x------x-x-----------------------------x---------------------------------------------|
B|-x------------x--x------7-7-----------------------------x---------------------------------------------|
G|-2~-----------2--2~-----7-7-11-11-----------------------2~--------------------------------------------|
D|-4~-----9-9-7-4--4~-----5-5-12-12-4-4-4-4-4-4-4-4/7-7-x-4~-----9-9-7---x2-----------------------------|
A|-0~-----7-7-5-0--0~-----5-5-10-10-2-2-2-2-2-2-2-2/5-5-x-0~-----7-7-5----------------------------------|
D|-0~-----7-7-5-0--0~-----5-5-------2-2-2-2-2-2-2-2/5-5-x-0~-----7-7-5----------------------------------|

(Repeat Intro)

(Repeat Verse)

Interlude part 1.(All the crazy feedback stuff, just palm mute the intro over this bit or something)

Interlude part 2.

e|-----------------------------------------------------------------------x-x-x-x-x-x-x-x/-x--x--x--x--x-|
B|-----------------------------------------------------------------------7-7-7-7-7-7-7-7/-10-10-10-10-10|
G|-----------------------------------------------------------------------7-7-7-7-7-7-7-7/-10-10-10-10-10|
D|-9-9-9-9-9-9-9-9--9--9--9--9-9-9-9-9\-4-4-4-2-2-2-2-2-2-2-2-2-2-2-2-2/-5-5-5-5-5-5-5-5/-8--8--8--8--8-|
A|-9-9-9-9-9-9-9-12-12-12-12-9-9-9-9-9\-2-2-2-2-2-2-2-5-5-5-5-2-2-2-2-2/-5-5-5-5-5-5-5-5/-8--8--8--8--8-|
D|-9-9-9-9-9-9-9-9--9--9--9--9-9-9-9-9\-2-2-2-2-2-2-2-2-2-2-2-2-2-2-2-2/-5-5-5-5-5-5-5-5/-8--8--8--8--8-|

e|-x--x--x-\--------------------------------------------------------------------------------------------|
B|-10-10-10\--------------------------------------------------------------------------------------------|
G|-10-10-10\--------------------------------------------------------------------------------------------|
D|-8--8--8-\-------------------------------------------------------------------4-4-4-2-2-2-2-2-2-2-2-2-2|
A|-8--8--8-\--9-9-7-9-9-7-9-9-9-9-9-9-9-9------2-2-2-2-2-2-2-2-2-2-2-2-2-2-2-2-2-2-2-2-2-2-2-5-5-5-5-2-2|
D|-8--8--8-\--7-7-5-7-7-5-7-7-7-7-7-7-7-7------4-4-4-4-4-4-4-4-4-4-4-4-4-4-4-4-2-2-2-2-2-2-2-2-2-2-2-2-2|

e|--------x-x-x-x-x-x-x-x/-x--x--x--x--x--x--x--x-\-----------------------------------------------------|
B|--------7-7-7-7-7-7-7-7/-10-10-10-10-10-10-10-10\-----------------------------------------------------|
G|--------7-7-7-7-7-7-7-7/-10-10-10-10-10-10-10-10\---------------------------------6-6b^---------------|
D|-2-2-2/-5-5-5-5-5-5-5-5/-8--8--8--8--8--8--8--8-\-----------------------------------------------------|
A|-2-2-2/-5-5-5-5-5-5-5-5/-8--8--8--8--8--8--8--8-\--9-9-7-9-9-7-9-9-9-9-9-9-9-9------------------------|
D|-2-2-2/-5-5-5-5-5-5-5-5/-8--8--8--8--8--8--8--8-\--7-7-5-7-7-5-7-7-7-7-7-7-7-7------------------------|

Interlude part 3. (same as part 2 but the beginning chord sequence is a bit different)
e|------------------------------------------------------------------------------------------------------|
B|------------------------------------------------------------------------------------------------------|
G|------------------------------------------------------------------------------------------------------|
D|-9--9--9--9-9-9-11-11-11-9-9-9-9------------------------------------ends on---------------------------|
A|-12-12-12-9-9-9-9--9--9--9-9-9-9------------------------------------------------9~--------------------|
E|-9--9--9--9-9-9-9--9--9--9-9-9-9------------------------------------------------7~--------------------|


************************************

| /   slide up
| \   slide down
| h   hammer-on
| p   pull-off
| ~   vibrato
| +   harmonic
| x   Mute note
| b   Bend
| pb  Pre-bend
| br  Bend release
| pbr Pre-bend release
| brb Bend release bend

************************************
Добавлено: 31.08.2015
Другие материалы по этой песне:
  • Аккорды и текст

Страница создана 31.08.2015
http://primanota.ru/cloakroom/starchild-skull-chords.htm
Привет, Гость.
Предлагаем пройти революционный курс по гитаре.
Подарок от PrimaNota.Ru, забирай!