PrimaNota.ru - самый крупный в мире бесплатный архив песенных текстов, аккордов, табулатур и нот


Cloakroom - Bending - таба, бас-таба, видео

Регистрация Запомнить меня
Войти через:  Facebook Google Twitter Vk Yandex Mail.ru

Cloakroom - Bending - таба, бас-таба, видео

Печатать
Просмотров: 161
-------------------------------------------------------------------------------
                            Bending - Cloakroom
-------------------------------------------------------------------------------
Tabbed by: Thom Wilkinson
E-mail: thomas-wilkinson@live dot co dot uk

Great, relatively new band from Indiana.

http://myndfuneral.bandcamp.com/


Tuning: E Standard

e|---------------------------------------------------------------------------|
B|---------------------------------------------------------------------------|
G|-0-0-0---0-0-0-0---7--7--7---5-5-5-5---------------------------------------|
D|-2-2-2---0-0-0-0---9--9--9---2-2-2-2---------------------------------------|
A|-3-3-3---2-2-2-2---10-10-10--0-0-0-0---------------------------------------|
E|-3-3-3---0-0-0-0---0--0--0---0-0-0-0---------------------------------------|
Добавлено: 03.10.2014
Другие материалы по этой песне:
  • Аккорды и текст

Страница создана 03.10.2014
http://primanota.ru/cloakroom/bending-chords.htm
Привет, Гость.
Предлагаем пройти революционный курс по гитаре.
Подарок от PrimaNota.Ru, забирай!