PrimaNota.ru - самый крупный в мире бесплатный архив песенных текстов, аккордов, табулатур и нот


Cloakroom - Asymmetrical - таба, видео

Регистрация Запомнить меня
Войти через:  Facebook Google Twitter Vk Yandex Mail.ru

Cloakroom - Asymmetrical - таба, видео

Печатать
Просмотров: 152
My first tab so leave any tips on making them!

In the beginning I believe the guitar is just strumming the Dmaj chord while the bass plays.


e|---------------------------------------------------------------------------|
B|---------------------------------------------------------------------------|
G|--7------------------------------------------------------------------------|             
D|--4-x8-------8--------5---------8------------------------------------------|                
A|--5----------5-x8-----2-x8------5-x8---------------------------------------|
E|-------------6--------3---------6------------------------------------------|
    Dmaj       A#maj    Gmaj      A#maj

*These are Major chords just without the 5th!For example Dmaj: D,F#.

Repeat this part twice with these lyrics over it:

Took a long drive 
got a few dents 
told a couple jokes at your expense
Showed yourself out 
found your way back 
thought you'd never leave the cul de sac 


e|---------------------------------------------------------------------------|
B|---------------------------------------------------------------------------|
G|---------------------------------------------------------------------------|
D|--------------------------------------------------2-x8---------------------|
A|--9-x8------8-x8-----7-x8 Slide--9-Slide--7---0---2------------------------|
E|--7---------6--------5-----------7--------5---0---0------------------------|
    B5        A#5      A5          A#5      A5      Emin

Repeat once with these lyrics:

The longer you stay
the more that you see 
its not a world of possibility 


e|---------------------------------------------------------------------------|
B|---------------------------------------------------------------------------|
G|---------------------------------------------------------------------------|
D|--5-x8-------8-x8-------7--x8-Slide-8-Slide---7----5-let it ring-----------|
A|--2----------5----------4-----------5---------4----2-----------------------|
E|--3----------6----------5-----------6---------5----3-----------------------|
    Gmaj      A#maj     Amaj        A#maj     AMaj Gmaj

Play once with these lyrics:

Even I from time to time
will believe 
anything


e|---------------------------------------------------------------------------|
B|---------------------------------------------------------------------------|
G|--7------------------------------------------------------------------------|             
D|--4-x8-------8--------5---------8------------------------------------------|                
A|--5----------5-x8-----2-x8------5-x8---------------------------------------|
E|-------------6--------3---------6------------------------------------------|
    Dmaj       A#maj    Gmaj      A#maj

Repeat this part twice again with these lyrics:

Spent a few weeks
in a cold bed
had a lot of plans to circumvent
In your fair skin
spared no expense 
never felt the sting of consequence 


e|---------------------------------------------------------------------------|
B|---------------------------------------------------------------------------|
G|---------------------------------------------------------------------------|
D|--------------------------------------------------2-x8---------------------|
A|--9-x8------8-x8-----7-x8 Slide--9-Slide--7---0---2------------------------|
E|--7---------6--------5-----------7--------5---0---0------------------------|
    B5        A#5      A5          A#5      A5      Emin

Play once with these lyrics:

In the right mood
for the right plea
cellphones killing every worker bee


e|---------------------------------------------------------------------------|
B|---------------------------------------------------------------------------|
G|---------------------------------------------------------------------------|
D|--5-x8-------8-x8-------7--x8-Slide-8-Slide---7----5-let it ring-----------|
A|--2----------5----------4-----------5---------4----2-----------------------|
E|--3----------6----------5-----------6---------5----3-----------------------|
    Gmaj      A#maj     Amaj        A#maj     Amaj Gmaj

*This part might be a little different. I will listen to it a few more times and make the necessary tweaks!

Play once with these lyrics:

What has been destroying me?
What has been destroying me?
such a subtle frequency...


e|---------------------------------------------------------------------------|
B|---------------------------------------------------------------------------|
G|---------------------------------------------------------------------------|
D|--------------------------------------------------2-x8---------------------|
A|--9-x8------8-x8-----7-x8 Slide--9-Slide--7---0---2------------------------|
E|--7---------6--------5-----------7--------5---0---0------------------------|
    B5        A#5      A5          A#5      A5      Emin

Play once with the lyrics

You were not the least concerned
with Eternal Return 
but you'd never want the cycle to stop



e|---------------------------------------------------------------------------|
B|---------------------------------------------------------------------------|
G|-------------------------------7-x8----------------------------------------|
D|--5--x8---8-x8---5-x8---8-x8---4-------------------------------------------|
A|--2-------5------2------5------5-------------------------------------------|
E|--3-------6------3------6--------------------------------------------------|
    Gmaj    A#maj  Gmaj   A#maj  Dmaj
 
Play once with these lyrics:

May the cycle never stop
May the cycle...
Never stop


*The next part is the solo which I will in the next few days.
Добавлено: 31.08.2015
Вам также может быть интересно:
Другие материалы по этой песне:
  • Аккорды и текст

Страница создана 31.08.2015
http://primanota.ru/cloakroom/asymmetrical-chords.htm
Привет, Гость.
Предлагаем пройти революционный курс по гитаре.
Подарок от PrimaNota.Ru, забирай!