PrimaNota.ru - самый крупный в мире бесплатный архив песенных текстов, аккордов, табулатур и нот


Clit 45 - Who Commits The Crime - таба, видео

Регистрация Запомнить меня
Войти через:  Facebook Google Twitter Vk Yandex Mail.ru

Clit 45 - Who Commits The Crime - таба, видео

Печатать
Просмотров: 176
Уроки эстрадного вокала в Санкт-Петербурге
Clit 45 - Who Commits The Crime
Tales From The Clit (2000)
Tabbed By ruker (Varuker@gmail.com)
Standard Tuning EADGBE

--------------
Key:
--------------
.   Palm Mute
~   Vibrato
h   Hammer-On
p   Pull-Off
b   Bend
r   Release
/   Slide Up
\   Slide Down
x   Dead Note
--------------

!Note - Space Are Rests!


Intro (0:00)  9x                   10x
||--------------||--------------------||------------||
||*------------*||*------------------*||------------||
||--------------||--------------------||------------||
||--5-5-5-    --||--5-5-5-------------||-5-5-5~---\-||
||*-5-5-5------*||*-5-5-5-5555555555-*||-5-5-5~---\-||
||--3-3-3-------||--3-3-3-3333333333--||-3-3-3~---\-||
                          ..........


Chorus (0:37)                                                            6x
||------------------|-----------------|-----------------|------------------||
||*-----------------|-----------------|-----------------|-----------------*||
||------------------|-----------------|-8-8-8-8-8-8-8-8-|-101010108-8-7-7--||
||--5-5-5-5-5-5-5-5-|-5-5-5-5-5-5-5-5-|-8-8-8-8-8-8-8-8-|-101010108-8-7-7--||
||*-5-5-5-5-5-5-5-5-|-5-5-5-5-5-5-5-5-|-6-6-6-6-6-6-6-6-|-8-8-8-8-6-6-5-5-*||
||--3-3-3-3-3-3-3-3-|-3-3-3-3-3-3-3-3-|-----------------|------------------||



Verse (1:05)
||------------------|------------------|-----------------|------------------||
||*-----------------|------------------|-----------------|-----------------*||
||----------8-8-7-7-|-1010101012121212-|---------8-8-7-7-|-101010108-8-8-8--||
||--5-5-5-5-8-8-7-7-|-1010101012121212-|-5-5-5-5-8-8-7-7-|-101010108-8-8-8--||
||*-5-5-5-5-6-6-5-5-|-8-8-8-8-10101010-|-5-5-5-5-6-6-5-5-|-8-8-8-8-6-6-6-6-*||
||--3-3-3-3---------|------------------|-3-3-3-3---------|------------------||



Chorus (1:15)                                                            6x
||------------------|-----------------|-----------------|------------------||
||*-----------------|-----------------|-----------------|-----------------*||
||------------------|-----------------|-8-8-8-8-8-8-8-8-|-101010108-8-7-7--||
||--5-5-5-5-5-5-5-5-|-5-5-5-5-5-5-5-5-|-8-8-8-8-8-8-8-8-|-101010108-8-7-7--||
||*-5-5-5-5-5-5-5-5-|-5-5-5-5-5-5-5-5-|-6-6-6-6-6-6-6-6-|-8-8-8-8-6-6-5-5-*||
||--3-3-3-3-3-3-3-3-|-3-3-3-3-3-3-3-3-|-----------------|------------------||



Verse (1:43)
||------------------|------------------|-----------------|------------------||
||*-----------------|------------------|-----------------|-----------------*||
||----------8-8-7-7-|-1010101012121212-|---------8-8-7-7-|-101010108-8-8-8--||
||--5-5-5-5-8-8-7-7-|-1010101012121212-|-5-5-5-5-8-8-7-7-|-101010108-8-8-8--||
||*-5-5-5-5-6-6-5-5-|-8-8-8-8-10101010-|-5-5-5-5-6-6-5-5-|-8-8-8-8-6-6-6-6-*||
||--3-3-3-3---------|------------------|-3-3-3-3---------|------------------||



Fill (1:53)
||-------------|------------|------------|-------------||------------||
||*------------|------------|------------|------------*||------------||
||-------------|-8----------|-10---------|-12~--x------||------------||
||--5-        -|-8-        -|-10-       -|-12~--x-   --||-5-        -||
||*-5----------|-6----------|-8----------|-10~--x-----*||-5----------||
||--3----------|------------|------------|-------------||-3----------||



Chorus (2:04)                                                            6x
||------------------|-----------------|-----------------|------------------||
||*-----------------|-----------------|-----------------|-----------------*||
||------------------|-----------------|-8-8-8-8-8-8-8-8-|-101010108-8-7-7--||
||--5-5-5-5-5-5-5-5-|-5-5-5-5-5-5-5-5-|-8-8-8-8-8-8-8-8-|-101010108-8-7-7--||
||*-5-5-5-5-5-5-5-5-|-5-5-5-5-5-5-5-5-|-6-6-6-6-6-6-6-6-|-8-8-8-8-6-6-5-5-*||
||--3-3-3-3-3-3-3-3-|-3-3-3-3-3-3-3-3-|-----------------|------------------||



Verse (2:32)
||------------------|------------------|-----------------|------------------||
||*-----------------|------------------|-----------------|-----------------*||
||----------8-8-7-7-|-1010101012121212-|---------8-8-7-7-|-101010108-8-8-8--||
||--5-5-5-5-8-8-7-7-|-1010101012121212-|-5-5-5-5-8-8-7-7-|-101010108-8-8-8--||
||*-5-5-5-5-6-6-5-5-|-8-8-8-8-10101010-|-5-5-5-5-6-6-5-5-|-8-8-8-8-6-6-6-6-*||
||--3-3-3-3---------|------------------|-3-3-3-3---------|------------------||



Outro (2:41) Slowly Fade Out        2x
||-----------|-----------|------------||
||*----------|-----------|-----------*||
||-----------|-----------|------------||
||--5~-------|-5-5~------|-55-x-    --||
||*-5~-------|-5-5~------|-55-x------*||
||--3~-------|-3-3~------|-33-x-------||
               .           ..
Добавлено: 26.05.2012
Другие материалы по этой песне:
  • Аккорды и текст

Страница создана 26.05.2012
http://primanota.ru/clit-45/who-commits-the-crime-chords.htm
Привет, Гость.
Предлагаем пройти революционный курс по гитаре.
Подарок от PrimaNota.Ru, забирай!