PrimaNota.ru - самый крупный в мире бесплатный архив песенных текстов, аккордов, табулатур и нот


Clit 45 - Used To Have A Life - таба, видео

Регистрация Запомнить меня
Войти через:  Facebook Google Twitter Vk Yandex Mail.ru

Clit 45 - Used To Have A Life - таба, видео

Печатать
Просмотров: 135
Clit 45 - Used To Have A Life
Tales From The Clit (2000)
Tabbed By ruker (Varuker@gmail.com)
Standard Tuning EADGBE

--------------
Key:
--------------
.   Palm Mute
~   Vibrato
h   Hammer-On
p   Pull-Off
b   Bend
r   Release
/   Slide Up
\   Slide Down
--------------



Intro (0:00)
||-----------------------||
||-----------------------||
||-7----7----7--7--7--7--||
||-7----7----7--7--7--7--||
||-5----5----5--5--5--5--||
||-----------------------||



Riff A (0:02)                4x
||-----------------------------||
||*---------------------------*||
||--7--7-----------------------||
||--7--7--7-7-7-5----5--5--5---||
||*-5--5--7-7-7-5----5--5--5--*||
||--------5-5-5-3----3--3--3---||



Riff B (0:11)
||----------------------------------------------||
||*--------------------------------------------*||
||--7-7-7-7-7-7-7-7--7--7-----------------------||
||--7-7-7-7-7-7-7-7--7--7--7-7-7-5----5--5--5---||
||*-5-5-5-5-5-5-5-5--5--5--7-7-7-5----5--5--5--*||
||-------------------------5-5-5-3----3--3--3---||


Chorus (0:19)
  Lead
||---------------------------------------------------------------||
||*-------------------------------7-7-5-5-----5-----------------*||
||-----------------7--7-7-7-7-7-7---------7-7----7~-------7-7-7--||
||--7--7-7-7-7-7-7-----------------------------------------------||
||*-------------------------------------------------------------*||
||---------------------------------------------------------------||
|                                                                 |
| Rhythm                                                          |
||---------------------------------------------------------------||
||*-------------------------------------------------------------*||
||-----------------7--7-7-7-7-7-7----------------7--7-7-7-7-7-7--||
||--7--7-7-7-7-7-7-7--7-7-7-7-7-7-7--7-7-7-7-7-7-7--7-7-7-7-7-7--||
||*-7--7-7-7-7-7-7-5--5-5-5-5-5-5-7--7-7-7-7-7-7-5--5-5-5-5-5-5-*||
||--5--5-5-5-5-5-5----------------5--5-5-5-5-5-5-----------------||



Riff A (0:27)                4x
||-----------------------------||
||*---------------------------*||
||--7--7-----------------------||
||--7--7--7-7-7-5----5--5--5---||
||*-5--5--7-7-7-5----5--5--5--*||
||--------5-5-5-3----3--3--3---||



Riff B (0:36)
||----------------------------------------------||
||*--------------------------------------------*||
||--7-7-7-7-7-7-7-7--7--7-----------------------||
||--7-7-7-7-7-7-7-7--7--7--7-7-7-5----5--5--5---||
||*-5-5-5-5-5-5-5-5--5--5--7-7-7-5----5--5--5--*||
||-------------------------5-5-5-3----3--3--3---||



Chorus (0:44)
  Lead
||---------------------------------------------------------------||
||*-------------------------------7-7-5-5-----5-----------------*||
||-----------------7--7-7-7-7-7-7---------7-7----7~-------7-7-7--||
||--7--7-7-7-7-7-7-----------------------------------------------||
||*-------------------------------------------------------------*||
||---------------------------------------------------------------||
|                                                                 |
| Rhythm                                                          |
||---------------------------------------------------------------||
||*-------------------------------------------------------------*||
||-----------------7--7-7-7-7-7-7----------------7--7-7-7-7-7-7--||
||--7--7-7-7-7-7-7-7--7-7-7-7-7-7-7--7-7-7-7-7-7-7--7-7-7-7-7-7--||
||*-7--7-7-7-7-7-7-5--5-5-5-5-5-5-7--7-7-7-7-7-7-5--5-5-5-5-5-5-*||
||--5--5-5-5-5-5-5----------------5--5-5-5-5-5-5-----------------||



Riff A (0:52)                4x
||-----------------------------||
||*---------------------------*|| Note: 
||--7--7-----------------------||   Play Softer
||--7--7--7-7-7-5----5--5--5---||    Than Before
||*-5--5--7-7-7-5----5--5--5--*||
||--------5-5-5-3----3--3--3---||



Riff B (1:00)
||----------------------------------------------||
||*--------------------------------------------*||
||--7-7-7-7-7-7-7-7--7--7-----------------------||
||--7-7-7-7-7-7-7-7--7--7--7-7-7-5----5--5--5---||
||*-5-5-5-5-5-5-5-5--5--5--7-7-7-5----5--5--5--*||
||-------------------------5-5-5-3----3--3--3---||



Chorus (1:09)
  Lead
||---------------------------------------------------------------||
||*-------------------------------7-7-5-5-----5-----------------*||
||-----------------7--7-7-7-7-7-7---------7-7----7~-------7-7-7--||
||--7--7-7-7-7-7-7-----------------------------------------------||
||*-------------------------------------------------------------*||
||---------------------------------------------------------------||
|                                                                 |
| Rhythm                                                          |
||---------------------------------------------------------------||
||*-------------------------------------------------------------*||
||-----------------7--7-7-7-7-7-7----------------7--7-7-7-7-7-7--||
||--7--7-7-7-7-7-7-7--7-7-7-7-7-7-7--7-7-7-7-7-7-7--7-7-7-7-7-7--||
||*-7--7-7-7-7-7-7-5--5-5-5-5-5-5-7--7-7-7-7-7-7-5--5-5-5-5-5-5-*||
||--5--5-5-5-5-5-5----------------5--5-5-5-5-5-5-----------------||



Riff A (1:17)               16x
||-----------------------------||
||*---------------------------*||
||--7--7-----------------------||
||--7--7--7-7-7-5----5--5--5---||
||*-5--5--7-7-7-5----5--5--5--*||
||--------5-5-5-3----3--3--3---||



Outro (1:51)
||--------------------||
||--------------------||
||-7~--------------\--||
||-7~--------------\--||
||-5~--------------\--||
||--------------------||


Riot Squad Long Beach!!!
Добавлено: 02.05.2012
Другие материалы по этой песне:
  • Аккорды и текст

Страница создана 02.05.2012
http://primanota.ru/clit-45/used-to-have-a-life-chords.htm
Привет, Гость.
Предлагаем пройти революционный курс по гитаре.
Подарок от PrimaNota.Ru, забирай!