PrimaNota.ru - самый крупный в мире бесплатный архив песенных текстов, аккордов, табулатур и нот


Clit 45 - The Streets - таба, видео

Регистрация Запомнить меня
Войти через:  Facebook Google Twitter Vk Yandex Mail.ru

Clit 45 - The Streets - таба, видео

Печатать
Просмотров: 81
Clit 45 - The Streets
Tales From The Clit (2000)
Tabbed By ruker (Varuker@gmail.com)
Standard Tuning EADGBE

--------------
Key:
--------------
.   Palm Mute
~   Vibrato
h   Hammer-On
p   Pull-Off
/   Slide Up
\   Slide Down
--------------

Intro (0:00)
 Right Guitar
||---------------------------------|--------------------------------------------------|-------||
||---------------------------------|*------------------------------------------------*|-------||
||-----------------6-6-7-89-99-7-6-|---------------------------6-6-7--8-9--9-9--7--6--|-------||
||-7-7-7-77-77-7-7-----------------|--7--7--7--7-7--7-7--7--7-------------------------|-7-----||
||---------------------------------|*------------------------------------------------*|-------||
||---------------------------------|--------------------------------------------------|-------||
|                                                                                              |
|Left Guitar                                                                                   |
||---------------------------------|---------------------------9-9-10-1112-1212-10-9--|-10----||
||---------------------------------|*-10-10-10-1010-1010-10-10-----------------------*|-------||
||-------------REST----------------|--------------------------------------------------|-------||
||---------------------------------|--------------------------------------------------|-------||
||---------------------------------|*------------------------------------------------*|-------||
||---------------------------------|--------------------------------------------------|-------||


Riff A (0:15)                                                 4x
||--------------------------------------------------------------||
||*------------------------------------------------------------*||
||-----------------11-1111111111119--9-9-9-9-9-9-8--8-9--9-8----||
||--9--9-9-9-9-9-9-11-1111111111119--9-9-9-9-9-9-8--8-9--9-8----||
||*-9--9-9-9-9-9-9-9--9-9-9-9-9-9-7--7-7-7-7-7-7-6--6-7--7-6---*||
||--7--7-7-7-7-7-7----------------------------------------------||


Riff B (0:31)
||--------------------------------------------------------------||
||*------------------------------------------------------------*||
||--10-101010101010---------------10-101010101010---------------||
||--10-10101010101010-10101010101010-1010101010108--8-8--8-8-8--||
||*-8--8-8-8-8-8-8-10-1010101010108--8-8-8-8-8-8-8--8-8--8-8-8-*||
||-----------------8--8-8-8-8-8-8----------------6--6-6--6-6-6--||


Riff A (0:39)                                                 4x
||--------------------------------------------------------------||
||*------------------------------------------------------------*||
||-----------------11-1111111111119--9-9-9-9-9-9-8--8-9--9-8----||
||--9--9-9-9-9-9-9-11-1111111111119--9-9-9-9-9-9-8--8-9--9-8----||
||*-9--9-9-9-9-9-9-9--9-9-9-9-9-9-7--7-7-7-7-7-7-6--6-7--7-6---*||
||--7--7-7-7-7-7-7----------------------------------------------||


Riff B (0:55)
||--------------------------------------------------------------||
||*------------------------------------------------------------*||
||--10-101010101010---------------10-101010101010---------------||
||--10-10101010101010-10101010101010-1010101010108--8-8--8-8-8--||
||*-8--8-8-8-8-8-8-10-1010101010108--8-8-8-8-8-8-8--8-8--8-8-8-*||
||-----------------8--8-8-8-8-8-8----------------6--6-6--6-6-6--||


Riff A (1:03)                                                 4x
||--------------------------------------------------------------||
||*------------------------------------------------------------*||
||-----------------11-1111111111119--9-9-9-9-9-9-8--8-9--9-8----||
||--9--9-9-9-9-9-9-11-1111111111119--9-9-9-9-9-9-8--8-9--9-8----||
||*-9--9-9-9-9-9-9-9--9-9-9-9-9-9-7--7-7-7-7-7-7-6--6-7--7-6---*||
||--7--7-7-7-7-7-7----------------------------------------------||


Guitar Lead (1:03)
||-------------------------------------------------------------|
||*-----------------------------------------------------------*|
||-----------------6--7-9--7-6-----------------9--7-6---6-6-6--|
||--7--7-7-7-7-7-7--------------7--7-7-7-7-7-7-----------------|
||*-----------------------------------------------------------*|
||-------------------------------------------------------------|


|----------------9--1012-109-----------------12-109---9-9-9---|
|-10-101010101010-------------10-101010101010-----------------|
|-------------------------------------------------------------|
|-------------------------------------------------------------|
|-------------------------------------------------------------|
|-------------------------------------------------------------|


|----------------9--1012-109-----------------12-109-------||
|-10-101010101010-------------10-101010101010-------------||
|---------------------------------------------------------||
|---------------------------------------------------------||
|---------------------------------------------------------||
|---------------------------------------------------------||


Riff B (1:19)
||--------------------------------------------------------------||
||*------------------------------------------------------------*||
||--10-101010101010---------------10-101010101010---------------||
||--10-10101010101010-10101010101010-1010101010108--8-8--8-8-8--||
||*-8--8-8-8-8-8-8-10-1010101010108--8-8-8-8-8-8-8--8-8--8-8-8-*||
||-----------------8--8-8-8-8-8-8----------------6--6-6--6-6-6--||


Riff A (1:27)                                                 4x
||--------------------------------------------------------------||
||*------------------------------------------------------------*||
||-----------------11-1111111111119--9-9-9-9-9-9-8--8-9--9-8----||
||--9--9-9-9-9-9-9-11-1111111111119--9-9-9-9-9-9-8--8-9--9-8----||
||*-9--9-9-9-9-9-9-9--9-9-9-9-9-9-7--7-7-7-7-7-7-6--6-7--7-6---*||
||--7--7-7-7-7-7-7----------------------------------------------||


Riff B (1:43)
||--------------------------------------------------------------||
||*------------------------------------------------------------*||
||--10-101010101010---------------10-101010101010---------------||
||--10-10101010101010-10101010101010-1010101010108--8-8--8-8-8--||
||*-8--8-8-8-8-8-8-10-1010101010108--8-8-8-8-8-8-8--8-8--8-8-8-*||
||-----------------8--8-8-8-8-8-8----------------6--6-6--6-6-6--||


Outro - Right Guitar (1:51)                                   4x
||--------------------------------------------------------------|-------------------------||
||*------------------------------------------------------------*|-------------------------||
||-----------------11-1111--1111119--9-9---9-9-9-8-8-8-9--9-8---|-------------------------||
||--9--9-9---9-9-9-11-1111--1111119--9-9---9-9-9-8-8-8-9--9-8---|-9--------------------9--||
||*-9--9-9---9-9-9-9--9-9---9-9-9-7--7-7---7-7-7-6-6-6-7--7-6--*|-9--------------------9--||
||--7--7-7---7-7-7----------------------------------------------|-7--------------------7--||


Outro - Left Guitar (1:51)
||----------------------------------------------|
||----------------------------------------------|
||----------------------------------------------|
||-9---------------------9----------------------|
||-9---------------------9----------------------|
||-7---------------------7----------------------|


|----------------9--9-9---9-9-9-10-1010--10101012--1212-12109-|
|-10-1010--101010---------------------------------------------|
|-------------------------------------------------------------|
|-------------------------------------------------------------|
|-------------------------------------------------------------|
|-------------------------------------------------------------|


|----------------9--9-9---9-9-9-10-1010--10-1210--9--12109-12-10-9----------10-10-10\--||
|-10-1010--101010----------------------------------------------------------------------||
|--------------------------------------------------------------------------------------||
|--------------------------------------------------------------------------------------||
|--------------------------------------------------------------------------------------||
|--------------------------------------------------------------------------------------||
Добавлено: 19.09.2013
Другие материалы по этой песне:
  • Аккорды и текст

Страница создана 19.09.2013
http://primanota.ru/clit-45/the-streets-chords.htm
Привет, Гость.
Предлагаем пройти революционный курс по гитаре.
Подарок от PrimaNota.Ru, забирай!