PrimaNota.ru - самый крупный в мире бесплатный архив песенных текстов, аккордов, табулатур и нот


Clit 45 - Right In Line - таба, видео

Регистрация Запомнить меня
Войти через:  Facebook Google Twitter Vk Yandex Mail.ru

Clit 45 - Right In Line - таба, видео

Печатать
Просмотров: 121
Clit 45 - Right In Line
Tales From The Clit (2000)
Tabbed By ruker (Varuker@gmail.com)
Standard Tuning EADGBE

-------------
Key:
-------------
.  palm mute
h  hamer-on
p  pull-off
t  tap
/  slide up
\  slide down
-------------

Intro (0:00)
 Left Only
||--------------------------------------------------------|
||*------------------------------------------------------*|
||--------------------------------------------------------|
||--8--8-8-8--8-8-8--8-8-8--8-8-8--8-8-8--8-8-8--8-8-8----|
||*-8--8-8-8--8-8-8--8-8-8--8-8-8--8-8-8--8-8-8--8-8-8---*|
||--6--6-6-6--6-6-6--6-6-6--6-6-6--6-6-6--6-6-6--6-6-6----|


|------------------------------------------------------------|
|------------------------------------------------------------|
|-------------------------8--6--6-6-6--6-6-6--6-6-6--6-6-5---|
|-8--8-8-8--8-8-8--8-8-8--8--6--6-6-6--6-6-6--6-6-6--6-6-5---|
|-8--8-8-8--8-8-8--8-8-8--6--4--4-4-4--4-4-4--4-4-4--4-4-3---|
|-6--6-6-6--6-6-6--6-6-6-------------------------------------|


|---------------------------------------------------|
|---------------------------------------------------|
|-5-5-5--5-5-5--5-5-5--5-5-5--6--5--6--5--6--5--6---|
|-5-5-5--5-5-5--5-5-5--5-5-5--6--5--6--5--6--5--6---|
|-3-3-3--3-3-3--3-3-3--3-3-3--4--3--4--3--4--3--4---|
|---------------------------------------------------|

 Left
|-------------------------------------------------------------|
|*------------------------------------------------------------|
|--------------------------8--6--6-6-6--6-6-6--6-6-6--6-6-5---|
|--8--8-8-8--8-8-8--8-8-8--8--6--6-6-6--6-6-6--6-6-6--6-6-5---|
|*-8--8-8-8--8-8-8--8-8-8--6--4--4-4-4--4-4-4--4-4-4--4-4-3---|
|--6--6-6-6--6-6-6--6-6-6-------------------------------------|
|                                                             |
|Right                                                        |
|-------------------------------------------------------------|
|*------------------------------------------------------------|
|--------------------------8--6--6-6-6--6-6-6--6-6-6--6-6-5---|
|--8--8-8-8--8-8-8--8-8-8--8--6--6-6-6--6-6-6--6-6-6--6-6-5---|
|*-8--8-8-8--8-8-8--8-8-8--6--4--4-4-4--4-4-4--4-4-4--4-4-3---|
|--6--6-6-6--6-6-6--6-6-6-------------------------------------|
   .  . . .  . . .  . . .  .  .  . . .  . . .  . . .  . . .
                                                   3x
|----------------------------------------------------||
|---------------------------------------------------*||
|-5-5-5--5-5-5--5-5-5--5-5-5--6--5--6--5--6--5--6----||
|-5-5-5--5-5-5--5-5-5--5-5-5--6--5--6--5--6--5--6----||
|-3-3-3--3-3-3--3-3-3--3-3-3--4--3--4--3--4--3--4---*||
|----------------------------------------------------||
|                                                     |
|                                                  3x |
|----------------------------------------------------||
|---------------------------------------------------*||
|-5-5-5--5-5-5--5-5-5--5-5-5--6--5--6--5--6--5--6----||
|-5-5-5--5-5-5--5-5-5--5-5-5--6--5--6--5--6--5--6----||
|-3-3-3--3-3-3--3-3-3--3-3-3--4--3--4--3--4--3--4---*||
|----------------------------------------------------||
  . . .  . . .  . . .  . . .

Chorus (0:34)
 Both
||-------------------------------------------------------------|
||*------------------------------------------------------------|
||--------------------------8--6--6-6-6--6-6-6--6-6-6--6-6-5---|
||--8--8-8-8--8-8-8--8-8-8--8--6--6-6-6--6-6-6--6-6-6--6-6-5---|
||*-8--8-8-8--8-8-8--8-8-8--6--4--4-4-4--4-4-4--4-4-4--4-4-3---|
||--6--6-6-6--6-6-6--6-6-6-------------------------------------|

                                                   4x
|----------------------------------------------------||
|---------------------------------------------------*||
|-5-5-5--5-5-5--5-5-5--5-5-5--6--5--6--5--6--5--6----||
|-5-5-5--5-5-5--5-5-5--5-5-5--6--5--6--5--6--5--6----||
|-3-3-3--3-3-3--3-3-3--3-3-3--4--3--4--3--4--3--4---*||
|----------------------------------------------------||


Pre-Verse (1:02)
 Left                                                                           3x
||-------------------------------------------|------------------------------------||
||-------------------------------------------|*----------------------------------*||
||-------------------------------------------|--7-9-------------------------------||
||-8-----------------------------------------|--7-9-------------------------------||
||-8-----------------------------------------|*-5-7------------------------------*||
||-6-----------------------------------------|------------------------------------||
|                                                                                  |
|Right                                                                          3x |
||-------------------------------------------|------------------------------------||
||-------------------------------------------|*----------------------------------*||
||----------7-9-9999994-4444445-555555555555-|--7-9-9999994-4444445-555555555555--||
||-8--------7-9-9999994-4444445-555555555555-|--7-9-9999994-4444445-555555555555--||
||-8--------5-7-7777772-2222223-333333333333-|*-5-7-7777772-2222223-333333333333-*||
||-6-----------------------------------------|------------------------------------||


Verse (1:17)
 Both                               4x
||------------------------------------||
||*----------------------------------*||
||--7-9-9999994-4444445-555555555555--||
||--7-9-9999994-4444445-555555555555--||
||*-5-7-7777772-2222223-333333333333-*||
||------------------------------------||


Pre-Chorus (1:31)
||--------------------------------------------------------------------||
||*------------------------------------------------------------------*||
||----------8-8888886-66666666666666--------8-8888886-666666----------||
||--6-6666668-8888886-666666666666666-6666668-8888886-6666668-888888--||
||*-6-6666666-6666664-444444444444446-6666666-6666664-4444448-888888-*||
||--4-444444------------------------4-444444----------------6-666666--||


Chorus (1:44)
||-------------------------------------------------------------|
||*------------------------------------------------------------|
||--------------------------8--6--6-6-6--6-6-6--6-6-6--6-6-5---|
||--8--8-8-8--8-8-8--8-8-8--8--6--6-6-6--6-6-6--6-6-6--6-6-5---|
||*-8--8-8-8--8-8-8--8-8-8--6--4--4-4-4--4-4-4--4-4-4--4-4-3---|
||--6--6-6-6--6-6-6--6-6-6-------------------------------------|


|----------------------------------------------------||
|---------------------------------------------------*||
|-5-5-5--5-5-5--5-5-5--5-5-5--6--5--6--5--6--5--6----||
|-5-5-5--5-5-5--5-5-5--5-5-5--6--5--6--5--6--5--6----||
|-3-3-3--3-3-3--3-3-3--3-3-3--4--3--4--3--4--3--4---*||
|----------------------------------------------------||


Verse (1:57)                        4x
||------------------------------------||
||*----------------------------------*||
||--7-9-9999994-4444445-555555555555--||
||--7-9-9999994-4444445-555555555555--||
||*-5-7-7777772-2222223-333333333333-*||
||------------------------------------||


Pre-Chorus (2:11)
||--------------------------------------------------------------------||
||*------------------------------------------------------------------*||
||----------8-8888886-66666666666666--------8-8888886-666666----------||
||--6-6666668-8888886-666666666666666-6666668-8888886-6666668-888888--||
||*-6-6666666-6666664-444444444444446-6666666-6666664-4444448-888888-*||
||--4-444444------------------------4-444444----------------6-666666--||


Bridge (2:24)
 Left
||-------------------------------------------------------------|
||*------------------------------------------------------------|
||--------------------------8--6--6-6-6--6-6-6--6-6-6--6-6-5---|
||--8--8-8-8--8-8-8--8-8-8--8--6--6-6-6--6-6-6--6-6-6--6-6-5---|
||*-8--8-8-8--8-8-8--8-8-8--6--4--4-4-4--4-4-4--4-4-4--4-4-3---|
||--6--6-6-6--6-6-6--6-6-6-------------------------------------|
|                                                              |
|Right                                                         |
||-------------------------------------------------------------|
||*------------------------------------------------------------|
||--------------------------8--6--6-6-6--6-6-6--6-6-6--6-6-5---|
||--8--8-8-8--8-8-8--8-8-8--8--6--6-6-6--6-6-6--6-6-6--6-6-5---|
||*-8--8-8-8--8-8-8--8-8-8--6--4--4-4-4--4-4-4--4-4-4--4-4-3---|
||--6--6-6-6--6-6-6--6-6-6-------------------------------------|
    .  . . .  . . .  . . .  .  .  . . .  . . .  . . .  . . .

|----------------------------------------------------|
|---------------------------------------------------*|
|-5-5-5--5-5-5--5-5-5--5-5-5--6--5--6--5--6--5--6----|
|-5-5-5--5-5-5--5-5-5--5-5-5--6--5--6--5--6--5--6----|
|-3-3-3--3-3-3--3-3-3--3-3-3--4--3--4--3--4--3--4---*|
|----------------------------------------------------|
|                                                    |
|                                                    |
|----------------------------------------------------|
|---------------------------------------------------*|
|-5-5-5--5-5-5--5-5-5--5-5-5--6--5--6--5--6--5--6----|
|-5-5-5--5-5-5--5-5-5--5-5-5--6--5--6--5--6--5--6----|
|-3-3-3--3-3-3--3-3-3--3-3-3--4--3--4--3--4--3--4---*|
|----------------------------------------------------|
  . . .  . . .  . . .  . . .

|-------------------------------------------------------------------------------|----------||
|*-----------------------------------------------------------------------------*|----------||
|-----------------------------------------------------5--6--5--6--5--6--5--6----|----------||
|--8--------------------------------------------------5--6--5--6--5--6--5--6----|-8--------||
|*-8--------------------------------------------------3--4--3--4--3--4--3--4---*|-8--------||
|--6----------------------------------------------------------------------------|-6--------||
|                                                                                           |
|                                                                                           |
|-------------------------------------------------------------------------------|----------||
|*-----------------------------------------------------------------------------*|----------||
|-------------------6----------------5----------------5--6--5--6--5--6--5--6----|----------||
|--8----------------6----------------5----------------5--6--5--6--5--6--5--6----|-8--------||
|*-8----------------4----------------3----------------3--4--3--4--3--4--3--4---*|-8--------||
|--6----------------------------------------------------------------------------|-6--------||


Pre-Verse (2:59)                    4x
||------------------------------------||
||*----------------------------------*||
||--7-9-------------------------------||
||--7-9-------------------------------||
||*-5-7------------------------------*||
||------------------------------------||
|                                      |
|                                   4x |
||------------------------------------||
||*----------------------------------*||
||--7-9-9999994-4444445-555555555555--||
||--7-9-9999994-4444445-555555555555--||
||*-5-7-7777772-2222223-333333333333-*||
||------------------------------------||


Verse (3:13)
 Both                               4x
||------------------------------------||
||*----------------------------------*||
||--7-9-9999994-4444445-555555555555--||
||--7-9-9999994-4444445-555555555555--||
||*-5-7-7777772-2222223-333333333333-*||
||------------------------------------||


Pre-Chorus (3:26)
||--------------------------------------------------------------------||
||*------------------------------------------------------------------*||
||----------8-8888886-66666666666666--------8-8888886-666666----------||
||--6-6666668-8888886-666666666666666-6666668-8888886-6666668-888888--||
||*-6-6666666-6666664-444444444444446-6666666-6666664-4444448-888888-*||
||--4-444444------------------------4-444444----------------6-666666--||


Chorus (3:39)
||-------------------------------------------------------------|
||*------------------------------------------------------------|
||--------------------------8--6--6-6-6--6-6-6--6-6-6--6-6-5---|
||--8--8-8-8--8-8-8--8-8-8--8--6--6-6-6--6-6-6--6-6-6--6-6-5---|
||*-8--8-8-8--8-8-8--8-8-8--6--4--4-4-4--4-4-4--4-4-4--4-4-3---|
||--6--6-6-6--6-6-6--6-6-6-------------------------------------|

                                                   4x
|----------------------------------------------------||
|---------------------------------------------------*||
|-5-5-5--5-5-5--5-5-5--5-5-5--6--5--6--5--6--5--6----||
|-5-5-5--5-5-5--5-5-5--5-5-5--6--5--6--5--6--5--6----||
|-3-3-3--3-3-3--3-3-3--3-3-3--4--3--4--3--4--3--4---*||
|----------------------------------------------------||


Outro (4:05)
 Left & Right
||-----------------------------------------------------------------|
||*----------------------------------------------------------------|
||--------------------------8--6--6-6-6--6-6-6--6-6-6--6-6-5-------|
||--8--8-8-8--8-8-8--8-8-8--8--6--6-6-6--6-6-6--6-6-6--6-6-5-------|
||*-8--8-8-8--8-8-8--8-8-8--6--4--4-4-4--4-4-4--4-4-4--4-4-3-------|
||--6--6-6-6--6-6-6--6-6-6-----------------------------------------|
|   .  . . .  . . .  . . .  .  .  . . .  . . .  . . .  . . .       |
|Lead                                                              |
||-----------------------------------------------------------------|
||*-18p14p11-18p14p11-18p14p11-18p14p11-18p14p11-18p14p11-18p14p11-|
||--t--------t--------t--------t--------t--------t--------t--------|
||-----------------------------------------------------------------|
||*----------------------------------------------------------------|
||-----------------------------------------------------------------|


|--------------------------------------------------------|
|-------------------------------------------------------*|
|-5-5-5--5-5-5--5-5-5--5-5-5--6--5--6--5--6--5--6--------|
|-5-5-5--5-5-5--5-5-5--5-5-5--6--5--6--5--6--5--6--------|
|-3-3-3--3-3-3--3-3-3--3-3-3--4--3--4--3--4--3--4-------*|
|--------------------------------------------------------|
| . . .  . . .  . . .  . . .  .  .  .  .  .  .  .        |
|                                                        |
|--------------------------------------------------------|
|-18p14p11-18p14p11-18p14p11-18p14p11-18p14p11-18p14p11-*|
|-t--------t--------t--------t--------t--------t---------|
|--------------------------------------------------------|
|-------------------------------------------------------*|
|--------------------------------------------------------|


|---------------------------------------------------------|----------------------||
|*-------------------------------------------------------*|----------------------||
|-----------6--------5--------5--6--5--6--5--6--5--6------|----------------------||
|--8--------6--------5--------5--6--5--6--5--6--5--6------|-8--------------------||
|*-8--------4--------3--------3--4--3--4--3--4--3--4-----*|-8--------------------||
|--6------------------------------------------------------|-6--------------------||
|                                                                                 |
|                                                                                 |
|---------------------------------------------------------|----------------------||
|*-18p14p11-18p14p11-18p14p11-18p14p11-18p14p11-18p14p11-*|-18-\-16--------------||
|--t--------t--------t--------t--------t--------t---------|-t--------------------||
|---------------------------------------------------------|----------------------||
|*-------------------------------------------------------*|----------------------||
|---------------------------------------------------------|----------------------||
Добавлено: 03.06.2013
Вам также может быть интересно:
Другие материалы по этой песне:
  • Аккорды и текст

Страница создана 03.06.2013
http://primanota.ru/clit-45/right-in-line-chords.htm
Привет, Гость.
Предлагаем пройти революционный курс по гитаре.
Подарок от PrimaNota.Ru, забирай!