PrimaNota.ru - самый крупный в мире бесплатный архив песенных текстов, аккордов, табулатур и нот


Clit 45 - It Aint Over - таба, видео

Регистрация Запомнить меня
Войти через:  Facebook Google Twitter Vk Yandex Mail.ru

Clit 45 - It Aint Over - таба, видео

Печатать
Просмотров: 129
Clit 45 - It Aint Over
Tales From The Clit (2000)
Tabbed By ruker
Standard Tuning EADGBE

--------------
Key:
--------------
.   Palm Mute
~   Vibrato
h   Hammer-On
p   Pull-Off
b   Bend
r   Release
/   Slide Up
\   Slide Down
()  Tied Note
--------------



Riff 1a (0:00)                       3x
||------------------|-----------------|------------------|-----------||
||*-----------------|----------------*|------------------|-----------||
||--9-9-9-9-9-9-7-7-|-----------------|------------------|-----------||
||--9-9-9-9-9-9-7-7-|-7-7--7-7-7-7-7--|-9999999999999999-|-9--REST---||
||*-7-7-7-7-7-7-5-5-|-7-7--7-7-7-7-7-*|-9999999999999999-|-9---------||
||------------------|-5-5--5-5-5-5-5--|-7777777777777777-|-7---------||



Riff 1b (0:12)                      3x
||------------------|-----------------|------------------|-----------||
||*-----------------|----------------*|------------------|-----------||
||--9-9-9-9-9-9-7-7-|-----------------|------------------|-----5--7--||
||--9-9-9-9-9-9-7-7-|-7-7--7-7-7-7-7--|-9999999999999999-|-9---5--7--||
||*-7-7-7-7-7-7-5-5-|-7-7--7-7-7-7-7-*|-9999999999999999-|-9---3--5--||
||------------------|-5-5--5-5-5-5-5--|-7777777777777777-|-7---------||



Riff 2 (0:23)                        4x
||------------------|------------------||
||*-----------------|-----------------*||
||--9-9-9-9-9-9-9-9-|-5-5-5-5-7-7-7-7--||
||--9-9-9-9-9-9-9-9-|-5-5-5-5-7-7-7-7--||
||*-7-7-7-7-7-7-7-7-|-3-3-3-3-5-5-5-5-*||
||------------------|------------------||



Riff 3 (0:33)                        4x
||------------------|------------------|------------------|-------------||
||*-----------------|-----------------*|------------------|-------------||
||--9-9-9-9-5-57--7-|------------------|------------------|-------------||
||--9-9-9-9-5-57--7-|-5-5-5-5-7-7-7-7--|-9999999999999999-|-9-PICKSLIDE-||
||*-7-7-7-7-3-35--5-|-5-5-5-5-7-7-7-7-*|-9999999999999999-|-9----DOWN---||
||------------------|-3-3-3-3-5-5-5-5--|-7777777777777777-|-7-----------||



Riff 1a (0:46)                      3x
||------------------|-----------------|------------------|-----------||
||*-----------------|----------------*|------------------|-----------||
||--9-9-9-9-9-9-7-7-|-----------------|------------------|-----------||
||--9-9-9-9-9-9-7-7-|-7-7--7-7-7-7-7--|-9999999999999999-|-9--REST---||
||*-7-7-7-7-7-7-5-5-|-7-7--7-7-7-7-7-*|-9999999999999999-|-9---------||
||------------------|-5-5--5-5-5-5-5--|-7777777777777777-|-7---------||



Riff 1b (0:57)                      3x
||------------------|-----------------|------------------|-----------||
||*-----------------|----------------*|------------------|-----------||
||--9-9-9-9-9-9-7-7-|-----------------|------------------|-----5--7--||
||--9-9-9-9-9-9-7-7-|-7-7--7-7-7-7-7--|-9999999999999999-|-9---5--7--||
||*-7-7-7-7-7-7-5-5-|-7-7--7-7-7-7-7-*|-9999999999999999-|-9---3--5--||
||------------------|-5-5--5-5-5-5-5--|-7777777777777777-|-7---------||



Riff 2 (1:08)                        4x
||------------------|------------------||
||*-----------------|-----------------*||
||--9-9-9-9-9-9-9-9-|-5-5-5-5-7-7-7-7--||
||--9-9-9-9-9-9-9-9-|-5-5-5-5-7-7-7-7--||
||*-7-7-7-7-7-7-7-7-|-3-3-3-3-5-5-5-5-*||
||------------------|------------------||



Riff 3 (1:18)                        4x
||------------------|------------------|------------------|-----------||
||*-----------------|-----------------*|------------------|-----------||
||--9-9-9-9-5-57--7-|------------------|------------------|-----------||
||--9-9-9-9-5-57--7-|-5-5-5-5-7-7-7-7--|-9999999999999999-|-9--REST---||
||*-7-7-7-7-3-35--5-|-5-5-5-5-7-7-7-7-*|-9999999999999999-|-9---------||
||------------------|-3-3-3-3-5-5-5-5--|-7777777777777777-|-7---------||



Fill (1:31)
  Guitars
||-----------------|-----------------|
||*----------------|----------------*|
||-----------------|-----------------|
||------REST-------|------REST-------|
||*----------------|----------------*|
||-----------------|-----------------|
|                                    
| Bass                               
||-----------------|-----------------|
||*----------------|----------------*|
||*-7-7--7-7-7-5-5-|----------------*|
||-----------------|-5-5--5-5-5-5-5--|



|----------------|----------------|------------------|-----------||
|----------------|----------------|------------------|-----------||
|-9--------------|-(9)------------|------------------|-----------||
|-9--------------|-(9)------------|-9999999999999999-|-9--REST---||
|-7--------------|-(7)------------|-9999999999999999-|-9---------||
|----------------|----------------|-7777777777777777-|-7---------||
                                                                  |
                                                                  |
|----------------|----------------|------------------|-----------||
|----------------|----------------|------------------|-----------||
|-7-7--7-7-7-5-5-|----------------|------------------|----REST---||
|----------------|-5-5--5-5-5-5-5-|-7777777777777777-|-7---------||



Riff 1b (1:41)                      3x
||------------------|-----------------|------------------|-----------|----------||
||*-----------------|----------------*|------------------|-----------|----------||
||--9-9-9-9-9-9-7-7-|-----------------|------------------|-----5--7--|-9~-------||
||--9-9-9-9-9-9-7-7-|-7-7--7-7-7-7-7--|-9999999999999999-|-9---5--7--|-9~-------||
||*-7-7-7-7-7-7-5-5-|-7-7--7-7-7-7-7-*|-9999999999999999-|-9---3--5--|-7~-------||
||------------------|-5-5--5-5-5-5-5--|-7777777777777777-|-7---------|----------||


Добавлено: 11.03.2012
Другие материалы по этой песне:
  • Аккорды и текст

Страница создана 11.03.2012
http://primanota.ru/clit-45/it-aint-over-chords.htm
Привет, Гость.
Предлагаем пройти революционный курс по гитаре.
Подарок от PrimaNota.Ru, забирай!