PrimaNota.ru - самый крупный в мире бесплатный архив песенных текстов, аккордов, табулатур и нот


Clint Mansell - Death Is A Disease - таба, видео

Регистрация Запомнить меня
Войти через:  Facebook Google Twitter Vk Yandex Mail.ru

Clint Mansell - Death Is A Disease - таба, видео

Печатать
Просмотров: 277
Авторы музыки: Clint Mansell

Song: Death Is A Disease
Artist: Clint Mansell
Album: The Fountain
Tuning: Drop C

Guitar
|--------------------------------------------------------|-------------------------|
|-------------------12n*-----------------12n*------12n*--|--------12n*--------12n*-|
|------------12n*-------------------12n*------12n*-------|---12n*--------12n*------|
|-9--------9------9---------9-----9----------------------|-9-----------9-----------| 
|--------------------------------------------------------|-------------------------|
|--------------------------------------------------------|-------------------------|
 Later (around 1:00) this begins to become a slow appreciation like:

Violin (throughout the entire song)
|-----------------------------------------------------------------| 
|-----------------------------------------------------------------|
|-9h12p9h12p9h12p9h12p9h12----------------------------------------|
|-----------------------------------------------------------------| 
|-----------------------------------------------------------------|
|-----------------------------------------------------------------|

Cello
(0:00) (1:27) 
|-----------------------------------------------------------------| 
|-----------------------------------------------------------------|
|-----------------------------------------------------------------|
|-----------------------------------------------------------------| 
|-----------------------------------------------------------------|
|-5-----\2~-------------------------------------------------------|

|-----------------------------------------------------------------| 
|-----------------------------------------------------------------|
|-----------------------------------------------------------------|
|-----------------------------------------------------------------| 
|-----------------------------------------------------------------|
|-7-----\2~-------------------------------------------------------|

|-----------------------------------------------------------------| 
|-----------------------------------------------------------------|
|-----------------------------------------------------------------|
|-----------------------------------------------------------------| 
|-----------------------------------------------------------------|
|-3-----\2~-------------------------------------------------------|

|-----------------------------------------------------------------| 
|-----------------------------------------------------------------|
|-----------------------------------------------------------------|
|-----------------------------------------------------------------| 
|-----------------------------------------------------------------|
|-0-----/2~-------------------------------------------------------|

Around 0:26, 1:01, and 1:58 a note wavers (d|-12\\\11///12-|

0:35
|-----------------------------------------------------------------| 
|-----------------------------------------------------------------|
|-----------------------------------------------------------------|
|-----------------------------------------------------------------| 
|-----------------------------------------------------------------|
|-5-----\2~-----------------------7-----\2~-----------------------|

|-----------------------------------------------------------------| 
|-----------------------------------------------------------------|
|-----------------------------------------------------------------|
|-----------------------------------------------------------------| 
|-----------------------------------------------------------------|
|-3-----\2~-----------------------0-----/2~-----------------------|

0:51 (and 2:07)
|-----------------------------------------------------------------| 
|-----------------------------------------------------------------|
|-----------------------------------------------------------------|
|-----------------------------------------------------------------| 
|-7---------5--------3---------2----3---2-------------------------|
|--------------------------------------------5-2~-----------------|

1:11
(twice the duration as above)
|-----------------------------------------------------------------| 
|-----------------------------------------------------------------|
|-----------------------------------------------------------------|
|-----------------------------------------------------------------| 
|-7~------7-5~-------3~------3-2~-------2---3---2-----------------|
|---------------------------------------------------5-2~----------|
Добавлено: 10.04.2012
Другие материалы по этой песне:
  • Аккорды и текст

Страница создана 10.04.2012
http://primanota.ru/clint-mansell/death-is-a-disease-chords.htm
Привет, Гость.
Предлагаем пройти революционный курс по гитаре.
Подарок от PrimaNota.Ru, забирай!