PrimaNota.ru - самый крупный в мире бесплатный архив песенных текстов, аккордов, табулатур и нот


Clinic - Thor - таба, видео

Регистрация Запомнить меня
Войти через:  Facebook Google Twitter Vk Yandex Mail.ru

Clinic - Thor - таба, видео

Печатать
Просмотров: 149
T H O R  by  C L I N I C

Fully tabbed by Goad.
If you have any questions or whatever, just leave a comment.

Standard Tuning

/ = slide up to higher note
\ = slide down to lower note


RIFF 1
   Guitar 1
e|-9-9---8-8\-|-6-6\-----4-|-9-9--8-8---6-|-8-8-8-8-8-8-8-8-|-9-9-9-9-9-9-9\-|
B|------------|------------|--------------|-----------------|----------------|
G|------------|------------|--------------|-----------------|----------------|
D|------------|------------|--------------|-----------------|----------------|
A|------------|------------|--------------|-----------------|----------------|
E|------------|------------|--------------|-----------------|----------------|
 | Guitar 2
e|------------|------------|--------------|-----------------|----------------|
B|------------|------------|--------------|-----------------|----------------|
G|------------|------------|--------------|-----------------|----------------|
D|------------|------------|--------------|-----------------|----------------|
A|------------|------------|--------------|-----------------|----------------|
E|-9-9---8-8\-|-6-6\-----4-|-9-9--8-8---6-|-8-8-8-8-8-8-8-8-|-9-9-9-9-9-9-9\-|


RIFF 2  --  repeat 2x
   Guitar 1
e|-4--6-----4--------|-4--6-6---4--------|-4--6-6-/9--9--6-6-4---|-6---------------|
B|-------------6-----|-------------6-----|-----------------------|-----------------|
G|-------------------|-------------------|-----------------------|-----------------|
D|-------------------|-------------------|-----------------------|-----------------|
A|-------------------|-------------------|-----------------------|-----------------|
E|-------------------|-------------------|-----------------------|-----------------|
 |
 | Guitar 2                                                      | 1st ending
e|-------------------|-------------------|-----------------------|-----------------|
B|-------------------|-------------------|-----------------------|-----------------|
G|-------------------|-------------------|-----------------------|-----------------|
D|-------------------|-------------------|-----------------------|-----------------|
A|-------------------|-------------------|-----------------------|-----------------|
E|-4--6-6---4--1-1-1-|-4--6-6---4--1-1-1-|-4--6-6-/9--9--6-6-4-4-|-6-6-6-6-6-6-6---|
                                                                 |
                                                                 | 2nd ending
                                                                 |-6-6-6-6-6-6-6-6-|


RIFF 3
   Guitar 1
e|-----------------|-----------------|
B|-6-6-6-6-6-5-4-3-|-6-6-6-6-6-5-4-3-|
G|-----------------|-----------------|
D|-----------------|-----------------|
A|-----------------|-----------------|
E|-----------------|-----------------|
 | Guitar 2
e|-----------------|-----------------|
B|-----------------|-----------------|
G|-----------------|-----------------|
D|-----------------|-----------------|
A|-----------------|-----------------|
E|-6-6-6-6-6-6-6-6-|-6-6-6-6-6-6-6-6-|

   Guitar 1
e|-5---------------|-----------------|-----------------|
B|-----------------|-----------------|-----------------|
G|-----------------|-3---------------|-3---------------|
D|-----------------|-----------------|-----------------|
A|-----------------|-----------------|-----------------|
E|-----------------|-----------------|-----------------|
 | Guitar 2
e|-----------------|-----------------|-----------------|
B|-----------------|-----------------|-----------------|
G|-----------------|-----------------|-----------------|
D|-----------------|-----------------|-----------------|
A|-----------------|-----------------|-----------------|
E|-6-6-6-6-6-6-6-6-|-6-6-6-6-6-6-6-6-|-6-6-6-6-6-6-4---|


** Repeat all 3 RIFFS from the top, then:
** Repeat RIFF 1, then:


RIFF 4
   Guitar 1
e|---------------------|    |-4-4-4-6-6-6-6-6--4------|
B|---------------------|    |-------------------------|
G|---------------------|    |-------------------------|
D|---------------------| x7 |-------------------------|
A|---------------------|    |-------------------------|
E|---------------------|    |-------------------------|
 | Guitar 2
e|---------------------|    |-------------------------|
B|---------------------|    |-------------------------|
G|---------------------|    |-------------------------|
D|-11-11-10--7-8-7-8-7-| x7 |-6-6-6-8-8-8-8-8--6----3-|
A|---------------------|    |-------------------------|
E|---------------------|    |-------------------------|

   Guitar 1
e|-5---------------|-----------------|
B|-----------------|-----------------|
G|-----------------|-----------------|
D|-----------------|-----------------|
A|-----------------|-----------------|
E|-----------------|-----------------|
 | Guitar 2
e|-----------------|-----------------|
B|-----------------|-----------------|
G|-----------------|-----------------|
D|-----------------|-----------------|
A|-----------------|-----------------|
E|-6-6-6-6-6-6-6-6-|-6-6-6-6-6-6-6-6-|


RIFF 3-extended
   Guitar 1
e|-----------------|-----------------|
B|-6-6-6-6-6-5-4-3-|-6-6-6-6-6-5-4-3-|
G|-----------------|-----------------|
D|-----------------|-----------------|
A|-----------------|-----------------|
E|-----------------|-----------------|
 | Guitar 2
e|-----------------|-----------------|
B|-----------------|-----------------|
G|-----------------|-----------------|
D|-----------------|-----------------|
A|-----------------|-----------------|
E|-6-6-6-6-6-6-6-6-|-6-6-6-6-6-6-6-6-|

   Guitar 1
e|-5---------------|-----------------|-----------------|---------------|
B|-----------------|-----------------|-----------------|---------------|
G|-----------------|-3---------------|-3---------------|-3-------------|
D|-----------------|-----------------|-----------------|---------------|
A|-----------------|-----------------|-----------------|---------------|
E|-----------------|-----------------|-----------------|---------------|
 | Guitar 2
e|-----------------|-----------------|-----------------|---------------|
B|-----------------|-----------------|-----------------|---------------|
G|-----------------|-----------------|-----------------|---------------|
D|-----------------|-----------------|-----------------|---------------|
A|-----------------|-----------------|-----------------|---------------|
E|-6-6-6-6-6-6-6-6-|-6-6-6-6-6-6-6-6-|-6-6-6-6-6-6-6-6-|-6-6-6-6-6-4---|


RIFF 1-variation
   Guitar 1
e|-9-----8---|-6-------|    |-8-8-8-8-8-8-8-8-|-9-9-9-9-9-9-9-9-|-9-9-9-9-9-9-9-9-|
B|-----------|---------|    |-----------------|-----------------|-----------------|
G|-----------|---------|    |-----------------|-----------------|-----------------|
D|-----------|---------| x3 |-----------------|-----------------|-----------------|
A|-----------|---------|    |-----------------|-----------------|-----------------|
E|-----------|---------|    |-----------------|-----------------|-----------------|
 | Guitar 2
e|-----------|---------|    |-----------------|-----------------|-----------------|
B|-----------|---------|    |-----------------|-----------------|-----------------|
G|-----------|---------|    |-----------------|-----------------|-----------------|
D|-----------|---------| x3 |-----------------|-----------------|-----------------|
A|-----------|---------|    |-----------------|-----------------|-----------------|
E|-9-----8---|-6-------|    |-8-8-8-8-8-8-8-8-|-9-9-9-9-9-9-9-9-|-9-9-9-9-9-9-9-9-|


RIFF 5
   Only Guitar 2
e|--------------------------|-------------------------|
B|--------------------------|-------------------------|
G|--------------------------|-------------------------|
D|-11-11-11-11--11-11-13-11-|-11-11-11-11--11-11-10-8-| x5
A|--------------------------|-------------------------|
E|--------------------------|-------------------------|

e|-------------------------|-------------------------|
B|-------------------------|-------------------------|
G|-------------------------|-------------------------|
D|-11-11-11-11--11-11-10-8-|-11-11-11-11--11-11-10-8-|
A|-------------------------|-------------------------|
E|-------------------------|-------------------------|


RIFF 1-outro variation
   Guitar 1
e|-9-9--8-8--|-6-6-------|-8---9--//////////-|-18------|
B|-----------|-----------|-------------------|---------|
G|-----------|-----------|-------------------|---------|
D|-----------|-----------|-------------------|---------|
A|-----------|-----------|-------------------|---------|
E|-----------|-----------|-------------------|---------|
 | Guitar 2
e|-----------|-----------|-------------------|---------|
B|-----------|-----------|-------------------|---------|
G|-----------|-----------|-------------------|---------|
D|-----------|-----------|-------------------|---------|
A|-----------|-----------|-------------------|---------|
E|-9-9--8-8--|-6-6-////--|-8---9--//////////-|-18------|

THE END!
Добавлено: 05.04.2012
Другие материалы по этой песне:
  • Аккорды и текст

Страница создана 05.04.2012
http://primanota.ru/clinic/thor-chords.htm
Привет, Гость.
Предлагаем пройти революционный курс по гитаре.
Подарок от PrimaNota.Ru, забирай!