PrimaNota.ru - самый крупный в мире бесплатный архив песенных текстов, аккордов, табулатур и нот


Clinic - Paradise - бас-таба, видео

Регистрация Запомнить меня
Войти через:  Facebook Google Twitter Vk Yandex Mail.ru

Clinic - Paradise - бас-таба, видео

Печатать
Просмотров: 254
Уроки эстрадного вокала в Санкт-Петербурге
-------------------------------------------------------------------------------
			     Paradise  - Clinic
-------------------------------------------------------------------------------

Tabbed By : Gallagher2006 

Just going to give the 3 riffs in the song, listen to it to get the pattern

Intro/Verse

G|---------------------------------------------------------------------------|
D|---------------------------------------------------------------------------|
A|------4-------------4------------------------------------------------------|
E|--5-------5-3-0--5-----5--3--0---------------------------------------------|

2nd part of verse

G|---------------------------------------------------------------------------|
D|---------------------------------------------------------------------------|
A|----2----2-----------2-----2-----------------------------------------------|
E|-3-----3----0----3------3-----0--------------------------------------------|

Chorus

G|---------------------------------------------------------------------------|
D|---------------------------------------------------------------------------|
A|---------------------------------------------------------------------------|
E|--5-5-5-5-5-5-5-3-5-5-5-5-5-5-5-3--then---8-8-8-8-8-8-8-9-9-9-9-9-9-8-8----|

And back to the main riff

Easy as hell song, going to work out the guitar and melodica and 
get a Guitar Pro tab up eventually, so keep an eye out for it ;)

Cheers
Добавлено: 15.07.2012
Другие материалы по этой песне:
  • Аккорды и текст

Страница создана 15.07.2012
http://primanota.ru/clinic/paradise-chords.htm
Привет, Гость.
Предлагаем пройти революционный курс по гитаре.
Подарок от PrimaNota.Ru, забирай!