PrimaNota.ru - самый крупный в мире бесплатный архив песенных текстов, аккордов, табулатур и нот


Clinic - Harmony - текст песни, бас-таба, видео

Регистрация Запомнить меня
Войти через:  Facebook Google Twitter Vk Yandex Mail.ru

Clinic - Harmony - текст песни, бас-таба, видео

Печатать
Просмотров: 227
Уроки эстрадного вокала в Санкт-Петербурге
Artist: Clinic
Song: Harmony
Album: Walking With Thee

Okay, so this is a great song.  The song is a bit tricky at first, mostly due to their
and the amount of reaching you will have to do (a strong pinky finger helps a lot, but
ring finger can suffice; you just need to reach more).  The good thing is that the bass
always playing essentially the same riff- your hand just changes where it is on the
 The tabs are pretty straightforward.  As always, I'm 100% positive these tabs are accurate.

So here it is.....

0:08
G--5-----3-5-----3--|
D------5-------5----|
A----3-------3------|
E-------------------|  x4

0:16 (Horn comes in)
G--5-----3-5-----3--|
D------5-------5----|
A----3-------3------|
E-------------------|  x6

0:27
G--7-----5-7-----5-7-----5-7-----7--|
D------7-------7-------7-------7----|
A----5-------5-------5-------5------|
E-----------------------------------|

G--5-----3-5-----3--|
D------5-------5----|
A----3-------3------|
E-------------------|  x8

0:45
G--8-----6-8-----6--|
D------8-------8----|
A----6-------6------|
E-------------------| x4

0:53
G--10------8-10------10-8-----6-8-----6--|
D-------10--------10--------8-------8----|
A-----8---------8---------6-------6------|
E----------------------------------------| x2

G--10------8-10------8--|
D-------10--------10----|
A-----8---------8-------|
E-----------------------|

G-------------------|
D--5-----3-5-----3--|
A------5-------5----|
E----3-------3------| x4

1:10
G--5-----3-5-----3--|
D------5-------5----|
A----3-------3------|
E-------------------| x6

1:21
G--7-----5-7-----5-7-----5-7-----7--|
D------7-------7-------7-------7----|
A----5-------5-------5-------5------|
E-----------------------------------|

G--5-----3-5-----3--|
D------5-------5----|
A----3-------3------|
E-------------------|  x8

1:39
G--8-----6-8-----6--|
D------8-------8----|
A----6-------6------|
E-------------------| x4

G--10------8-10------10-8-----6-8-----6--|
D-------10--------10--------8-------8----|
A-----8---------8---------6-------6------|
E----------------------------------------| x2

G--10------8-10------8--|
D-------10--------10----|
A-----8---------8-------|
E-----------------------|

1:56
G-------------------|
D--5-----3-5-----3--|
A------5-------5----|
E----3-------3------| x4

G--5-----3-5-----3--|
D------5-------5----|
A----3-------3------|
E-------------------|  x4

G--5-----3-5-----3-5--|
D------5-------5------|
A----3-------3--------|
E---------------------|

2:15 (Pause)

2:24
G-------------------|
D--5-----3-5-----3--|
A------5-------5----|
E----3-------3------| x4

G--5-----3-5-----3--|
D------5-------5----|
A----3-------3------|
E-------------------|  x8

2:46
G--8-----6-8-----6--|
D------8-------8----|
A----6-------6------|
E-------------------| x4

G--10------8-10------10-8-----6-8-----6--|
D-------10--------10--------8-------8----|
A-----8---------8---------6-------6------|
E----------------------------------------| x2

G--10------8-10------8--|
D-------10--------10----|
A-----8---------8-------|
E-----------------------|

G-------------------|
D--5-----3-5-----3--|
A------5-------5----|
E----3-------3------| x4

3:11
G--5-----3-5-----3--|
D------5-------5----|
A----3-------3------|
E-------------------| x20

3:48
G--5--|
D-----|
A-----|
E-----|


So that's it.  Like I said (and like I always say), this is 100% accurate.  If you think
found a mistake somewhere or you think this deserves anything less than five stars,
me at narwhalsoup@ameritech.net and I'll check it out- I try my best to make all my tabs 
accurate as possible.  You can also e-mail me if you have questions or comments.
Добавлено: 27.03.2012
Другие материалы по этой песне:
  • Аккорды и текст

Страница создана 27.03.2012
http://primanota.ru/clinic/harmony-chords.htm
Привет, Гость.
Предлагаем пройти революционный курс по гитаре.
Подарок от PrimaNota.Ru, забирай!