PrimaNota.ru - самый крупный в мире бесплатный архив песенных текстов, аккордов, табулатур и нот


Climax Blues Band - So Into You - таба, видео

Регистрация Запомнить меня
Войти через:  Facebook Google Twitter Vk Yandex Mail.ru

Climax Blues Band - So Into You - таба, видео

Печатать
Просмотров: 107
-------------------------------------------------------------------------------
                             So into you - Climax Blues Band
-------------------------------------------------------------------------------
Tabbed by: Luke
Email: maccca1990@hotmail.com

Tuning: STANDARD

| /   slide up
| \   slide down
| h   hammer-on
| p   pull-off


Two guitars (Studio version you can hear 3 at one point...)

Rhythm guitar is repetitve and simple to pick up.

Verse

(Guitar 2 just palm mutes once or twice)
0:12
Guitar 1
e|-8--8--8--8-88---|
B|-9--9--9--9-99---|
G|-8--8--8--8-88---|  x6
D|-----------------|
A|-----------------|
E|-----------------|

Guitar 1
0:29
e|-6--6--6--6-66--|
B|-6--6--6--6-66--|
G|-6--6--6--6-66--|  x2
D|----------------|
A|----------------|
E|----------------|


0:35
e|-8--8--8--8-88---|
B|-9--9--9--9-99---|
G|-8--8--8--8-88---|  x2
D|-----------------|
A|-----------------|
E|-----------------|

0:40 - 0:47 - No guitar

0:48
Guitar 1
e|-8--8--8--8-88---|
B|-9--9--9--9-99---|
G|-8--8--8--8-88---|  x4
D|-----------------|
A|-----------------|
E|-----------------|

0:59
Guitar 1
e|-6--6--6--6-66--|
B|-6--6--6--6-66--|
G|-6--6--6--6-66--|  x2
D|----------------|
A|----------------|
E|----------------|

1:05
e|-8--8--8--8-88---|
B|-9--9--9--9-99---|
G|-8--8--8--8-88---|  x1
D|-----------------|
A|-----------------|
E|-----------------|

1:07 - 1:13 - No guitar


1:13 - 1:30
Guitar 1
e|-6--6--6--6-66--|
B|-6--6--6--6-66--|
G|-6--6--6--6-66--|  x2
D|----------------|
A|----------------|
E|----------------|

Guitar 2
e|-6-6\4-4-6------|
B|-6-6\4-4-6------|
G|----------------| x2
D|----------------|
A|----------------|
E|----------------|

e|-8--8--8--8-88---|
B|-9--9--9--9-99---|
G|-8--8--8--8-88---|  x2
D|-----------------|
A|-----------------|
E|-----------------|

Guitar 2
e|----------------|
B|-6-6\4-4-6------|
G|-5-5\3-3-5------|  x2
D|----------------|
A|----------------|
E|----------------|

Chorus
1:34 - 1;51

Both Guitars play an octave apart (whilst rhythm is still strumming...)

Guitar 1
e|---------------------|
B|---------------------|
G|--6p5h6p5h6p5h6/8----|
D|---------------------|
A|---------------------|
E|---------------------|


e|-----------------------------------------------|
B|-----------------------------------------------|
G|--6p5h6p5h6/8-5-----5--------------------------|
D|----------------8-6-----6p5-6-----8b-8-6-------|
A|------------------------------8----------8-----|
E|-----------------------------------------------|

e|---------------------|
B|---------------------|
G|--6p5h6p5h6p5h6/8----|
D|---------------------|
A|---------------------|
E|---------------------|

e|--------------------------|
B|--------------------------|
G|--6p5h6p5h6/8-5-----5b----|
D|----------------8-6-------|
A|--------------------------|
E|--------------------------|

Guitar 2

e|----------------------------|
B|--14p13h14p13h14p13h14/16---|
G|----------------------------|
D|----------------------------|
A|----------------------------|
E|----------------------------|

e|--------------------------------------------------------------|
B|--14p13h14p13h14/16-13-------13-------------------------------|
G|-----------------------15-13-----13p12-13-----15b-15-13-------|
D|------------------------------------------15------------15----|
A|--------------------------------------------------------------|
E|--------------------------------------------------------------|

e|----------------------------|
B|--14p13h14p13h14p13h14/16---|
G|----------------------------|
D|----------------------------|
A|----------------------------|
E|----------------------------|

e|--------------------------------------|
B|--14p13h14p13h14/16-13-------13b------|
G|-----------------------15-13----------|
D|--------------------------------------|
A|--------------------------------------|
E|--------------------------------------|


It's late so i'll complete the guitar 2 fill bits and slight changes to rhythm later and 
have a crack at the final 'Chorus' solo
Добавлено: 13.06.2012
Вам также может быть интересно:
Другие материалы по этой песне:
  • Аккорды и текст

Страница создана 13.06.2012
http://primanota.ru/climax-blues-band/so-into-you-chords.htm
Привет, Гость.
Предлагаем пройти революционный курс по гитаре.
Подарок от PrimaNota.Ru, забирай!