PrimaNota.ru - самый крупный в мире бесплатный архив песенных текстов, аккордов, табулатур и нот


Cleopatra Stratan - Zunea Zunea - таба, видео

Регистрация Запомнить меня
Войти через:  Facebook Google Twitter Vk Yandex Mail.ru

Cleopatra Stratan - Zunea Zunea - таба, видео

Печатать
Просмотров: 206
-------------------------------------------------------------------------------
                             Zunea Zunea - Cleopatra Stratan
-------------------------------------------------------------------------------
This is my 1st tab, so, sorry for any mistakes that I've done xD
Rate

Tabbed by: Alan Rizky Wardana
Facebook : https://www.facebook.com/MustBeProtected
E-mail: androidmaniac28@gmail.com

Tuning: Standard

INTRO

|-----------------------------------------------------------------------------|
|-----------------------------------------------------------------------------|
|-----------------------------/5-5-4---------/5-5-4---------------------------|
|--------4---------4-6-7\2-2---------7-/7-----------7-|5557.3x.|5-3-2-0-------|
|------7---7-----7------------------------7-----------------------------------|
|-----------------------------------------------------------------------------|

|-----------------------------------------------------------------------------|
|-----------------------------------------------------------------------------|
|----------/5-5-4----------/5-5-4---------------------------------------------|
|---/7-------------7-/7-----------7-/7---|5557.2x.|6-6-6-7-6-7-9-7~~----------|
|------7----------------7-----------------------------------------------------|
|-----------------------------------------------------------------------------|

|-------------------|
|-------------------|
|-------------------|
|------------2~-----|
|--77\55\33\2-------|
|-------------------|

Verse 

|------55--------55---------55--------55---------------------------------------|
|------55--------55---------66--------66---------------------------------------|
|------55--------55---------77--------77---------------------------------------|
|------77-(mute)-77-(mute)--77-(mute)-77----2-2-2-0p2-2-2-0p2-2-2-0------------|
|------77--------77---------55--------55---------------------------3-2---------|
|------55--------55---------xx--------xx---------------------------------------|

|------55--------55---------55--------55---------55--------55------------------|
|------55--------55---------66--------66---------55--------55------------------|
|------55--------55---------77--------77---------55--------55------------------|
|------77-(mute)-77-(mute)--77-(mute)-77-(mute)--77-(mute)-77------------------|
|------77--------77---------55--------55---------77--------77------------------|
|------55--------55---------xx--------xx---------55--------55--0-2-0--0-2-4-5--|

|-----55--------55---------55--------55----------------------------------------|
|-----55--------55---------66--------66----------------------------------------|
|-----55--------55---------77--------77----------------------------------------|
|-----77-(mute)-77-(mute)--77-(mute)-77-(mute)--/7777\2-2-0-2-3-2-0-2~---------|
|-----77--------77---------55--------55----------------------------------------|
|-----55--------55---------xx--------xx----------------------------------------|

|-----55--------55---------55--------55----------------------------------------|
|-----55--------55---------66--------66----------------------------------------|
|-----55--------55---------77--------77---------------------2-(mute)-----------|
|-----77-(mute)-77-(mute)--77-(mute)-77-(mute)---2-3-5-3-2-0-------------------|
|-----77--------77---------55--------55----------------------------------------|
|-----55--------55---------xx--------xx----------------------------------------|

Chorus (keep using mute technique)

Am
Hop-pa Zunea-Zunea
    F
Hop-pa toata lumea
    C
Lumea toata ii incantata
G
De pisica talentata

Am
Hop-pa hai ca-i buna
    F
Hop-pa nu-i o gluma
     C
Toti il cata pe Costica
E
Sa le mai aduc o sticla


BACK TO INTRO.... 

BACK TO VERSE....

BACK TO CHORUS...

BACK TO VERSE...

BACK TO CHORUS 2X (1st chorus using hold technique)

Ending

|----------------|
|----------------|
|----------------|
|--7\2-(mute)----|
|----------------|
|----------------|


************************************

| /   slide up
| \   slide down
| p   pull-off
| ~   vibrato
| x   Mute note

************************************
Добавлено: 13.04.2015
Вам также может быть интересно:
Другие материалы по этой песне:
  • Аккорды и текст

Страница создана 13.04.2015
http://primanota.ru/cleopatra-stratan/zunea-zunea-chords.htm
Привет, Гость.
Предлагаем пройти революционный курс по гитаре.
Подарок от PrimaNota.Ru, забирай!