PrimaNota.ru - самый крупный в мире бесплатный архив песенных текстов, аккордов, табулатур и нот


Clear Cut Cactus - Movin On - таба, видео

Регистрация Запомнить меня
Войти через:  Facebook Google Twitter Vk Yandex Mail.ru

Clear Cut Cactus - Movin On - таба, видео

Печатать
Просмотров: 77
Words by Matt Stone
Music by Rich Bagnall

Gtr I (E A D G B E) - 'Matt'
Gtr II (E A D G B E) - 'Rich 1'
Gtr III (E A D G B E) - 'Rich 2'
Gtr IV (E A D G B E) - 'Harmony'

   Intro
    Q=100
    Em                Em                Em                Em
   4/4
    Gtr I
||------------------|-----------------|-----------------|------------------|
||o-------------0---|-------------0---|-------------0---|-------------0----|
||--------0-------0-|-------0-------0-|-------0-------0-|-------0-------0--|
||------2-----2-----|-----2-----2-----|-----2-----2-----|-----2-----2------|
||o---2-------------|---2-------------|---2-------------|---2--------------|
||--0---------------|-0---------------|-0---------------|-0----------------|
|
|   Gtr II
||--8---7---5---7---|-8---7---5---7---|-8---7---5---7---|-8---7---5---7----|
||o---5---5---5---5-|---5---5---5---5-|---5---5---5---5-|---5---5---5---5--|
||------------------|-----------------|-----------------|------------------|
||------------------|-----------------|-----------------|------------------|
||o-----------------|-----------------|-----------------|------------------|
||------------------|-----------------|-----------------|------------------|


  G                 G                 G                 G
|-----------------|-----------------|-----------------|------------------||
|-------------0---|-------------0---|-------------0---|-------------0---o||
|-------0-------0-|-------0-------0-|-------0-------0-|-------0-------0--||
|-----0-----0-----|-----0-----0-----|-----0-----0-----|-----0-----0------||
|---2-------------|---2-------------|---2-------------|---2-------------o||
|-3---------------|-3---------------|-3---------------|-3----------------||
|
|-8---7---5---7---|-8---7---5---7---|-8---7---5---7---|-8---7---5---7----||
|-----------------|-----------------|-----------------|-----------------o||
|---0---0---0---0-|---0---0---0---0-|---0---0---0---0-|---0---0---0---0--||
|-----------------|-----------------|-----------------|------------------||
|-----------------|-----------------|-----------------|-----------------o||
|-----------------|-----------------|-----------------|------------------||


    Am                 Am
||---------------0---|--------------0---|
||o--------1-------1-|--------1-------1-|
||-------2-----2-----|------2-----2-----|
||----2--------------|---2--------------|
||o-0----------------|-0----------------|
||-------------------|------------------|
|
||--5-5-10-5-8-5-7-5-|-5-5-10-5-8-5-7-5-|
||o------------------|------------------|
||-------------------|------------------|
||-------------------|------------------|
||o------------------|------------------|
||-------------------|------------------|


  C                     C
|-----------------0---|----------------0-----||
|--------1----------1-|--------1---------1--o||
|------0-------0------|------0------0--------||
|---2-----------------|---2------------------||
|-3-------------------|-3-------------------o||
|---------------------|----------------------||
|
|-8-8-10-8-12-10-13-8-|-8-8-10-8-12-8-13-8---||
|---------------------|---------------------o||
|---------------------|----------------------||
|---------------------|----------------------||
|---------------------|---------------------o||
|---------------------|----------------------||


   Verse
    Em                Em                D                 D
                                                                            6x
||--0---0---0---0-0-|-0---0---0---0-0-|-2---2---2---2-2-|-2---2---2---2-2---||
||o-0---0---0---0-0-|-0---0---0---0-0-|-3---3---3---3-3-|-3---3---3---3-3--o||
||--0---0---0---0-0-|-0---0---0---0-0-|-2---2---2---2-2-|-2---2---2---2-2---||
||--2---2---2---2-2-|-2---2---2---2-2-|-0---0---0---0-0-|-0---0---0---0-0---||
||o-2---2---2---2-2-|-2---2---2---2-2-|-----------------|------------------o||
||--0---0---0---0-0-|-0---0---0---0-0-|-----------------|-------------------||
|
|                                                                           6x
||--3---2---3---2---|-3---2---3---2---|-3---2---3---2---|-3---2---3---2-----||
||o---5---5---5---5-|---5---5---5---5-|---3---3---3---3-|---3---3---3---3--o||
||------------------|-----------------|-----------------|-------------------||
||------------------|-----------------|-----------------|-------------------||
||o-----------------|-----------------|-----------------|------------------o||
||------------------|-----------------|-----------------|-------------------||


   Chorus
    Am                 Am
||--0----0---0---0-0-|-0----0---0---0-0-|
||o-1----1---1---1-1-|-1----1---1---1-1-|
||--2----2---2---2-2-|-2----2---2---2-2-|
||--2----2---2---2-2-|-2----2---2---2-2-|
||o-0----0---0---0-0-|-0----0---0---0-0-|
||-------------------|------------------|
|
||--5-5-10-5-8-5-7-5-|-5-5-10-5-8-5-7-5-|
||o------------------|------------------|
||-------------------|------------------|
||-------------------|------------------|
||o------------------|------------------|
||-------------------|------------------|


  C                     C
|-0----0----0-----0-0-|-0----0----0----0-0---||
|-1----1----1-----1-1-|-1----1----1----1-1--o||
|-0----0----0-----0-0-|-0----0----0----0-0---||
|-2----2----2-----2-2-|-2----2----2----2-2---||
|-3----3----3-----3-3-|-3----3----3----3-3--o||
|---------------------|----------------------||
|
|-8-8-10-8-12-10-13-8-|-8-8-10-8-12-8-13-8---||
|---------------------|---------------------o||
|---------------------|----------------------||
|---------------------|----------------------||
|---------------------|---------------------o||
|---------------------|----------------------||


   Verse
    Em                Em                D                 D
                                                                            6x
||--0---0---0---0-0-|-0---0---0---0-0-|-2---2---2---2-2-|-2---2---2---2-2---||
||o-0---0---0---0-0-|-0---0---0---0-0-|-3---3---3---3-3-|-3---3---3---3-3--o||
||--0---0---0---0-0-|-0---0---0---0-0-|-2---2---2---2-2-|-2---2---2---2-2---||
||--2---2---2---2-2-|-2---2---2---2-2-|-0---0---0---0-0-|-0---0---0---0-0---||
||o-2---2---2---2-2-|-2---2---2---2-2-|-----------------|------------------o||
||--0---0---0---0-0-|-0---0---0---0-0-|-----------------|-------------------||
|
|                                                                           6x
||--3---2---3---2---|-3---2---3---2---|-3---2---3---2---|-3---2---3---2-----||
||o---5---5---5---5-|---5---5---5---5-|---3---3---3---3-|---3---3---3---3--o||
||------------------|-----------------|-----------------|-------------------||
||------------------|-----------------|-----------------|-------------------||
||o-----------------|-----------------|-----------------|------------------o||
||------------------|-----------------|-----------------|-------------------||


   Chorus
    Am                 Am
||--0----0---0---0-0-|-0----0---0---0-0-|
||o-1----1---1---1-1-|-1----1---1---1-1-|
||--2----2---2---2-2-|-2----2---2---2-2-|
||--2----2---2---2-2-|-2----2---2---2-2-|
||o-0----0---0---0-0-|-0----0---0---0-0-|
||-------------------|------------------|
|
||--5-5-10-5-8-5-7-5-|-5-5-10-5-8-5-7-5-|
||o------------------|------------------|
||-------------------|------------------|
||-------------------|------------------|
||o------------------|------------------|
||-------------------|------------------|


  C                     C
|-0----0----0-----0-0-|-0----0----0----0-0---||
|-1----1----1-----1-1-|-1----1----1----1-1--o||
|-0----0----0-----0-0-|-0----0----0----0-0---||
|-2----2----2-----2-2-|-2----2----2----2-2---||
|-3----3----3-----3-3-|-3----3----3----3-3--o||
|---------------------|----------------------||
|
|-8-8-10-8-12-10-13-8-|-8-8-10-8-12-8-13-8---||
|---------------------|---------------------o||
|---------------------|----------------------||
|---------------------|----------------------||
|---------------------|---------------------o||
|---------------------|----------------------||


 Guitar Solo
  Em                Em
|-0---0---0---0-0-|--0----0--------0---0-0-|
|-0---0---0---0-0-|--0----0--------0---0-0-|
|-0---0---0---0-0-|--0----0--------0---0-0-|
|-2---2---2---2-2-|--2----2--------2---2-2-|
|-2---2---2---2-2-|--2----2--------2---2-2-|
|-0---0---0---0-0-|--0----0--------0---0-0-|
|
| Gtr III
|             ~                        ~
|-----------------|------------------------|
|-----------8-----|-12-10-8-8h10p8---------|
|-------------9---|----------------9-7-9---|
|-----5-7-9-------|------------------------|
|-5-7-------------|------------------------|
|-----------------|------------------------|


  D                                     D
|--2----------2-------2-------2-----2-|--2----2--------2---2-2-|
|--3----------3-------3-------3-----3-|--3----3--------3---3-3-|
|--2----------2-------2-------2-----2-|--2----2--------2---2-2-|
|--0----------0-------0-------0-----0-|--0----0--------0---0-0-|
|-------------------------------------|------------------------|
|-------------------------------------|------------------------|
|
|                                   ~                      ~
|-------------------------------------|------------------------|
|-12p10p8-10-10p8p7-8-8p7p5-7-7p5p3-5-|-12-10-8-8h10p8---------|
|-------------------------------------|----------------9-7-9---|
|-------------------------------------|------------------------|
|-------------------------------------|------------------------|
|-------------------------------------|------------------------|


  Em                               Em
|--0---------0-------0-------0-0-|--0----0--------0---0-0-|
|--0---------0-------0-------0-0-|--0----0--------0---0-0-|
|--0---------0-------0-------0-0-|--0----0--------0---0-0-|
|--2---------2-------2-------2-2-|--2----2--------2---2-2-|
|--2---------2-------2-------2-2-|--2----2--------2---2-2-|
|--0---------0-------0-------0-0-|--0----0--------0---0-0-|
|
|                            ~                        ~
|-10h12-8h10-7h8-5h7-3h5-2h3p2---|------------------------|
|--------------------------------|-12-10-8-8h10p8---------|
|--------------------------------|----------------9-7-9---|
|--------------------------------|------------------------|
|--------------------------------|------------------------|
|--------------------------------|------------------------|


  D                                                      D
|--2-----------------2-------------2-----------2-----2-|--2----2--------2---2-2-|
|--3-----------------3-------------3-----------3-----3-|--3----3--------3---3-3-|
|--2-----------------2-------------2-----------2-----2-|--2----2--------2---2-2-|
|--0-----------------0-------------0-----------0-----0-|--0----0--------0---0-0-|
|------------------------------------------------------|------------------------|
|------------------------------------------------------|------------------------|
|
|                                                    ~                      ~
|-15p14p12-14p12p10-12p10p8-10p8p7-8p7p5-7p5p3-5p3p2-3-|------------------------|
|------------------------------------------------------|-12-10-8-8h10p8---------|
|------------------------------------------------------|----------------9-7-9---|
|------------------------------------------------------|------------------------|
|------------------------------------------------------|------------------------|
|------------------------------------------------------|------------------------|


   Guitar Break
    Em                        Em
||---0-----0-----0-----0--0-|--0-----0-----0-----0--0-|
||o--0-----0-----0-----0--0-|--0-----0-----0-----0--0-|
||---0-----0-----0-----0--0-|--0-----0-----0-----0--0-|
||---2-----2-----2-----2--2-|--2-----2-----2-----2--2-|
||o--2-----2-----2-----2--2-|--2-----2-----2-----2--2-|
||---0-----0-----0-----0--0-|--0-----0-----0-----0--0-|
|
||--15-14-12-15-14-12-15-14-|-15-14-12-15-14-12-15-14-|
||o-------------------------|-------------------------|
||--------------------------|-------------------------|
||--------------------------|-------------------------|
||o-------------------------|-------------------------|
||--------------------------|-------------------------|
|
|   Gtr IV
||--19-17-15-19-17-15-19-17-|-19-17-15-19-17-15-19-17-|
||o-------------------------|-------------------------|
||--------------------------|-------------------------|
||--------------------------|-------------------------|
||o-------------------------|-------------------------|
||--------------------------|-------------------------|


  G                         G
|--3-----3-----3-----3--3-|--3-----3-----3-----3--3---||
|--0-----0-----0-----0--0-|--0-----0-----0-----0--0--o||
|--0-----0-----0-----0--0-|--0-----0-----0-----0--0---||
|--0-----0-----0-----0--0-|--0-----0-----0-----0--0---||
|--2-----2-----2-----2--2-|--2-----2-----2-----2--2--o||
|--3-----3-----3-----3--3-|--3-----3-----3-----3--3---||
|
|-19-17-15-19-17-15-19-17-|-19-17-15-19-17-15-19-17---||
|-------------------------|--------------------------o||
|-------------------------|---------------------------||
|-------------------------|---------------------------||
|-------------------------|--------------------------o||
|-------------------------|---------------------------||
|
|-22-20-19-22-20-19-22-20-|-22-20-19-22-20-19-22-20---||
|-------------------------|--------------------------o||
|-------------------------|---------------------------||
|-------------------------|---------------------------||
|-------------------------|--------------------------o||
|-------------------------|---------------------------||


 Outro
  Em                 Em
|------------------|--------------------|
|--------------0---|----------------0---|
|--------0-------0-|----------0-------0-|
|------2-----2-----|--------2-----2-----|
|----2-------------|------2-------------|
|--0---------------|---0----------------|
|
|  ~~~~~~~~~~~~~~~~~~~~~~~~~~~~~~~~~~~~~~
|-15---------------|-(15)---------------|
|-17---------------|-(17)---------------|
|------------------|--------------------|
|------------------|--------------------|
|------------------|--------------------|
|------------------|--------------------|
|
| Gtr II
|--8---7---5---7---|---8----7---5---7---|
|----5---5---5---5-|------5---5---5---5-|
|------------------|--------------------|
|------------------|--------------------|
|------------------|--------------------|
|------------------|--------------------|


  Em                   Em
|--------------------|---------------------|
|----------------0---|----------------0----|
|----------0-------0-|----------0-------0--|
|--------2-----2-----|--------2-----2------|
|------2-------------|------2--------------|
|---0----------------|---0-----------------|
|
|~~~~~~~~~~~~~~~~~~~~~~~~~~~
|-(15)---------------|-(15)----------------|
|-(17)---------------|-(17)----------------|
|--------------------|---------------------|
|--------------------|---------------------|
|--------------------|---------------------|
|--------------------|---------------------|
|
|---8----7---5---7---|---8----7---5---7----|
|------5---5---5---5-|------5---5---5---5--|
|--------------------|---------------------|
|--------------------|---------------------|
|--------------------|---------------------|
|--------------------|---------------------|


  G                 G                 G                 G
|-----------------|-----------------|-----------------|-----------------|
|-------------0---|-------------0---|-------------0---|-------------0---|
|-------0-------0-|-------0-------0-|-------0-------0-|-------0-------0-|
|-----0-----0-----|-----0-----0-----|-----0-----0-----|-----0-----0-----|
|---2-------------|---2-------------|---2-------------|---2-------------|
|-3---------------|-3---------------|-3---------------|-3---------------|
|
| Gtr II
|-8---7---5---7---|-8---7---5---7---|-8---7---5---7---|-8---7---5---7---|
|-----------------|-----------------|-----------------|-----------------|
|---0---0---0---0-|---0---0---0---0-|---0---0---0---0-|---0---0---0---0-|
|-----------------|-----------------|-----------------|-----------------|
|-----------------|-----------------|-----------------|-----------------|
|-----------------|-----------------|-----------------|-----------------|


  Em                Em                Em                Em
|-----------------|-----------------|-----------------|-----------------|
|-------------0---|-------------0---|-------------0---|-------------0---|
|-------0-------0-|-------0-------0-|-------0-------0-|-------0-------0-|
|-----2-----2-----|-----2-----2-----|-----2-----2-----|-----2-----2-----|
|---2-------------|---2-------------|---2-------------|---2-------------|
|-0---------------|-0---------------|-0---------------|-0---------------|
|
|-8---7---5---7---|-8---7---5---7---|-8---7---5---7---|-8---7---5---7---|
|---5---5---5---5-|---5---5---5---5-|---5---5---5---5-|---5---5---5---5-|
|-----------------|-----------------|-----------------|-----------------|
|-----------------|-----------------|-----------------|-----------------|
|-----------------|-----------------|-----------------|-----------------|
|-----------------|-----------------|-----------------|-----------------|


  G                 G                 G                 G
|-----------------|-----------------|-----------------|-----------------|
|-------------0---|-------------0---|-------------0---|-------------0---|
|-------0-------0-|-------0-------0-|-------0-------0-|-------0-------0-|
|-----0-----0-----|-----0-----0-----|-----0-----0-----|-----0-----0-----|
|---2-------------|---2-------------|---2-------------|---2-------------|
|-3---------------|-3---------------|-3---------------|-3---------------|
|
|-8---7---5---7---|-8---7---5---7---|-8---7---5---7---|-8---7---5---7---|
|-----------------|-----------------|-----------------|-----------------|
|---0---0---0---0-|---0---0---0---0-|---0---0---0---0-|---0---0---0---0-|
|-----------------|-----------------|-----------------|-----------------|
|-----------------|-----------------|-----------------|-----------------|
|-----------------|-----------------|-----------------|-----------------|


  Em          Em           Em           Em
|-^0--------|-(0)--------|-(0)--------|-(0)----*|
|-^0--------|-(0)--------|-(0)--------|-(0)----*|
|-^0--------|-(0)--------|-(0)--------|-(0)----*|
|-^2--------|-(2)--------|-(2)--------|-(2)----*|
|-^2--------|-(2)--------|-(2)--------|-(2)----*|
|-^0--------|-(0)--------|-(0)--------|-(0)----*|
|
|  ~~~~~~~~~~~~~~~~~~~~~~~~~~~~~~~~~~~~~~~~~
|-----------|------------|------------|--------*|
|--5--------|-(5)--------|-(5)--------|-(5)----*|
|-----------|------------|------------|--------*|
|-----------|------------|------------|--------*|
|-----------|------------|------------|--------*|
|-----------|------------|------------|--------*|
Добавлено: 07.11.2013
Другие материалы по этой песне:
  • Аккорды и текст

Страница создана 07.11.2013
http://primanota.ru/clear-cut-cactus/movin-on-chords.htm
Привет, Гость.
Предлагаем пройти революционный курс по гитаре.
Подарок от PrimaNota.Ru, забирай!