PrimaNota.ru - самый крупный в мире бесплатный архив песенных текстов, аккордов, табулатур и нот


The Cleaners From Venus - Only A Shadow - таба, бас-таба, видео

Регистрация Запомнить меня
Войти через:  Facebook Google Twitter Vk Yandex Mail.ru

The Cleaners From Venus - Only A Shadow - таба, бас-таба, видео

Печатать
Просмотров: 129
Artist: The Cleaners From Venus
Song: "Only a Shadow"
Album: Midnight Cleaners (1982/2012)



Standard Tuning w/ capo on first fret
-or-
F A# D# G# C F



Guitar: Martin Newell



INTRO/INTERLUDE:
f |-------------------------------------------------------------------------5-----2----------------|
C |-2--------2-----------2--5-----3-----2--------3-----------2-----------2--------------5--3--2----|
G#|-------4-----------4-----------------------2-----------2-----------2----------------------------|
D#|----4-----------4-----------------------2-----------4-----------4-------------------------------|
A#|------------------------------------------------------------------------------------------------|
F |------------------------------------------------------------------------------------------------|



VERSE:
   this harmonic pattern may not be exact but you get the idea
f |------------<7><7>------------<5><5>------<5><5>------------<7><7>------------<5><5>------<5><5>|
C |------<7><7><7><7><7><7>------<5><5><5><5><5><5>------<7><7><7><7><7><7>------<5><5><5><5><5><5>|
G#|<7><7><7><7>------<7><7><5><5>------<5><5>------<7><7><7><7>------<7><7><5><5>------<5><5>------|
D#|<7><7>------------------<5><5>------------------<7><7>------------------<5><5>------------------|
A#|------------------------------------------------------------------------------------------------|
F |------------------------------------------------------------------------------------------------|
+
f |------------<7><7>------------<5><5>------<5><5>|
C |------<7><7><7><7><7><7>------<5><5><5><5><5><5>|
G#|<7><7><7><7>------<7><7><5><5>------<5><5>------|
D#|<7><7>------------------<5><5>------------------|
A#|------------------------------------------------|
F |------------------------------------------------|



PRE-CHORUS:
    PM--------------------------------|    S     S  PM--------------------------------|    S     S
f |------------------------------------------------------------------------------------------------|
C |------------------------------------------------------------------------------------------------|
G#|------------------------------------------------------------------------------------------------|
D#|-4--4--4--4--4--4--4--4--4--4--4--4-----5-----5--4--4--4--4--4--4--4--4--4--4--4--4-----5-----5-|
A#|-2--2--2--2--2--2--2--2--2--2--2--2-----3-----3--2--2--2--2--2--2--2--2--2--2--2--2-----3-----3-|
F |------------------------------------------------------------------------------------------------|
+
    PM--------------------------------|    S     S  PM--------------------------------------------|
f |------------------------------------------------------------------------------------------------|
C |------------------------------------------------------------------------------------------------|
G#|------------------------------------------------------------------------------------------------|
D#|-4--4--4--4--4--4--4--4--4--4--4--4-----5-----5--4--4--4--4--4--4--4--4--4--4--4--4--4--4--4--4-|
A#|-2--2--2--2--2--2--2--2--2--2--2--2-----3-----3--2--2--2--2--2--2--2--2--2--2--2--2--2--2--2--2-|
F |------------------------------------------------------------------------------------------------|



CHORUS: TBA
f |------------------------------------------------------------------------------------------------|
C |------------------------------------------------------------------------------------------------|
G#|------------------------------------------------------------------------------------------------|
D#|------------------------------------------------------------------------------------------------|
A#|------------------------------------------------------------------------------------------------|
F |------------------------------------------------------------------------------------------------|



SONG STRUCTURE:

INTRO x 4
VERSE x 1
PRE-CHORUS x 1
CHORUS x 2
INTERLUDE x 2
VERSE x 1
PRE-CHORUS x 1
CHORUS x 4
INTERLUDE x 2
VERSE x 1
PRE-CHORUS x 1
CHORUS x 3
OUTRO (no guitar)



That's it.  Please leave any comments, questions, or requests.  Cheers!
-Bennyshambles78-


Добавлено: 07.09.2015
Другие материалы по этой песне:
  • Аккорды и текст

Страница создана 01.09.2014
http://primanota.ru/cleaners-from-venus/only-a-shadow-chords.htm
Привет, Гость.
Предлагаем пройти революционный курс по гитаре.
Подарок от PrimaNota.Ru, забирай!