PrimaNota.ru - самый крупный в мире бесплатный архив песенных текстов, аккордов, табулатур и нот


Claude Sirois - Nights In White Satin - таба, видео

Регистрация Запомнить меня
Войти через:  Facebook Google Twitter Vk Yandex Mail.ru

Claude Sirois - Nights In White Satin - таба, видео

Печатать
Просмотров: 134
   nights in white satin, arrangement pour guitare,par claude sirois

                      guitariste québécois

               écrit en tablature par steve morin

|---------------|---------------|---------------|------------------|
|-------0-------|---------------|-----0-0-0-----|------------------|
|-------0--2-0--|-2----2-----2--|-----0---0-2-0-|-2----2-----2-----|
|-------2-------|-4--------4----|-----2---2-----|-4--------4-------|
|---------------|-5------5------|---------------|-5------5---------|
|-0-----0-------|---------------|-0-------0-----|------------------|

|-------0-------|---------------|---------------|------------------|
|-------1--3-1--|-3----0--------|----------0----|------------------|
|-------0-------|-0----------0--|------2-2------|-0----------0-----|
|---------------|-0--------0----|------3--------|-2----2---2-------|
|-3-----3-------|---------------|---------------|------------------|
|---------------|-3------3------|-1----1--------|-0------0---------|

|---------------|---------------|---------------|------------------|
|-------0-------|---------------|-----0-0-0-----|------------------|
|-------0--2-0--|-2----2-----2--|-----0---0-2-0-|-2----2-----2-----|
|-------2-------|-4--------4----|-----2---2-----|-4--------4-------|
|---------------|-5------5------|---------------|-5------5---------|
|-0-----0-------|---------------|-0-------0-----|------------------|

|-------0-------|---------------|---------------|------------------|
|-------1--3-1--|-3----0--------|----------0----|------------------|
|-------0-------|-0----------0--|------2-2------|-0----------------|
|---------------|-0--------0----|------3--------|-2----2---2-------|
|-3-----3-------|---------------|---------------|------------------|
|---------------|-3------3------|-1----1--------|-0------0---------|

|---------------|----------0----|-0----0--------|--------3--2--0h2-|
|---------------|------------3--|-1----------1--|-----1--1---------|
|-2-----2-----2-|-----2---------|-0--------0----|---0----0---------|
|-2---------2---|---2-----------|---------------|------------------|
|-0-------0-----|-0-----0-------|-3------3------|-3------3---------|
|---------------|---------------|---------------|------------------|

|-2----0--------|----------2----|-2----0--------|----------2-------|
|-0-----------0-|-----3------3--|-0-----------0-|-----3------3-----|
|-0---------0---|---2------2----|-0---------0---|---2------2-------|
|---------------|-0------0------|---------------|-0------0---------|
|---------------|---------------|---------------|------------------|
|-0-------0-----|---------------|-0-------0-----|------------------|

|-------0-------|
|-------0-------|
|-------0-------|
|---------------|
|---------------|
|-------0-------|




pompom020366@hotmail.com
Добавлено: 25.07.2012
Другие материалы по этой песне:
  • Аккорды и текст

Страница создана 25.07.2012
http://primanota.ru/claude-sirois/nights-in-white-satin-chords.htm
Привет, Гость.
Предлагаем пройти революционный курс по гитаре.
Подарок от PrimaNota.Ru, забирай!