PrimaNota.ru - самый крупный в мире бесплатный архив песенных текстов, аккордов, табулатур и нот


Claude Sirois - Lady Jane - таба, видео

Регистрация Запомнить меня
Войти через:  Facebook Google Twitter Vk Yandex Mail.ru

Claude Sirois - Lady Jane - таба, видео

Печатать
Просмотров: 126
             lady jane ecrit par claude sirois   

       guitare classique        écrit en tablature par steve morin



|----2---5---2---0---2---5---2---|----2---5---2---0---2---5---2---|
|--------------------------------|--------------------------------|
|--------------------------------|--------------------------------|
|0-------------------------------|0-------------------------------|
|--------------------------------|--------------------------------|
|--------------------------------|--------------------------------|
        
|------------5---5-----3-----2---|------------0-------------------|
|------------7---7-----5-----3---|3-----------5---1---------------|
|--------------------------------|----0---------------0-------0---|
|0-------------------------------|--------2---------------2-------|
|--------------------------------|3-------------------------------|
|--------------------------------|--------------------------------|
       
|--------3---3---3-----2-----0---|--------------------------------|
|--------------------------------|0-----------3-------------------|
|--------0-----------------------|----0-------7---0---------------|
|--------------------------------|--------0-----------0-------0---|
|3-------------------------------|--------------------------------|
|--------------------------------|3-----------------------3-------|
 
        
|------------5---5-----3-----2---|------------0-------------------|
|------------7---7-----5-----3---|3-----------5---1---------------|
|--------------------------------|----0---------------0-------0---|
|0-------------------------------|--------2---------------2-------|
|--------------------------------|3-------------------------------|
|--------------------------------|--------------------------------|
      
|--------3---3---3-----2-----0---|--------------------------------|
|--------------------------------|0-----------3-------------------|
|--------0-----------------------|----0-------7---0---------------|
|--------------------------------|--------0-----------0-------0---|
|3-------------------------------|--------------------------------|
|--------------------------------|3-----------------------3-------|
       
|--------------------------------|--------------------------------|
|--------3---------------3-------|1-------------------------------|
|--------------------------------|--------------------------------|
|----------------2---------------|----2-------2---2---------------|
|--------------------------------|--------0-------7-------0-------|
|3-------------------------------|5---------------------------3---|
       
|--------------------------------|--------------------------------|
|--------1---------------1-------|0-------------------------------|
|--------------------------------|--------------------------------|
|----------------0---------------|--------------------------------|
|--------------------------------|------------2---2---------------|
|2-------------------------------|3-------------------------------|
        
|--------0-------8-------0-------|------------------------1---5---|
|--------1---------------1-------|1-------3---------------1-------|
|--------------------------------|7-------------------------------|
|--------------------------------|3-----------------------0-------|
|3-------------------------------|5-------------------------------|
|--------------------------------|--------------------------------|
       
|0-------------------------------|0-------------------------------|
|1-------------------------------|----3---1---3-------------------|
|2-------------------------------|2-------------------------------|
|2-------------------------------|0-------------------------------|
|0-------------------------------|--------------------------------|
|--------------------------------|--------------------------------|
 
  pompom020366@hotmail.com
Добавлено: 19.06.2012
Другие материалы по этой песне:
  • Аккорды и текст

Страница создана 19.06.2012
http://primanota.ru/claude-sirois/lady-jane-chords.htm
Привет, Гость.
Предлагаем пройти революционный курс по гитаре.
Подарок от PrimaNota.Ru, забирай!