PrimaNota.ru - самый крупный в мире бесплатный архив песенных текстов, аккордов, табулатур и нот


Дебюсси Клод - Лунный свет (Clair de Lune) - аккорды и текст, видео

Регистрация Запомнить меня
Войти через:  Facebook Google Twitter Vk Yandex Mail.ru

Дебюсси Клод - Лунный свет (Clair de Lune) - аккорды и текст, видео

Печатать
Просмотров: 145
Уроки эстрадного вокала в Санкт-Петербурге
Лунный свет (Clair de Lune)
Дебюсси Клод
Andante espressivo

 1 |  |  |   |  |  |   |  |  |   |  |  |
E|-----3-------|c3-----------|-0-----------|c0---------|
B|-----5-------|c5-----------|-1-----------|c1---3---5-|
G|-0-----------|-------------|-------------|-1---4---5-|
D|-2-----------|-------------|-------------|-----------|
A|-------------|-------------|-------------|-----------|
E|-------------|-------------|-------------|-----------|
  p                  sf

 5 |  |  |   |  |  |   |  |  |   |  |  |
E|-------------|-------------|-------------|-------0-|
B|-3-----------|c3-----------|-----1---3---|-1-----1-|
G|-4-----------|c4-----------|-0---2---4---|-2-------|
D|-------------|-------------|-2-----------|---------|
A|-------------|-------------|-------------|---------|
E|-------------|-------------|-------------|---------|
                     sf

 9 |  |  |   |  |  |   |  |  |   |  |  |
E|c0-----------|-------------|-------------|---|
B|c1-----1-----|-----0---1---|-0-----------|c0-|
G|-------2-----|-----0---2---|-0-----------|c0-|
D|-------------|-3-----------|-------------|---|
A|-------------|-5-----------|-------------|---|
E|-------------|-------------|-------------|---|

13 |  |  |   |  |  |   |  |  |   |  |  |
E|-------------|-------------|-------------|-----------|
B|---------0---|-----3-------|-------------|-----------|
G|-----2-------|-2-------2---|-0---2---0---|c0-------0-|
D|-3-----------|c3-----------|-3-----------|-----3-----|
A|-------------|-------------|-------------|-3---------|
E|-------------|-------------|-------------|-5---------|

17 |  |  |   |  |  |   |  |  |   |  |  |
E|-------------|-------------|-------------|-----5-----|
B|-------------|-------------|-----5---6---|-5-------5-|
G|-------------|-------------|-------------|-----------|
D|-3-----------|-2-----------|-------------|-----------|
A|-5-----------|-------------|-3-----------|c3---------|
E|-------------|-------------|-------------|-----------|
                     sf        agiatato

21 |  |  |   |  |  |   |  |  |   |  |  |
E|-------------|-------------|-------------|---------|
B|-3---5---3---|c3---1---3---|-1-----------|-0-------|
G|-------------|-0-----------|c0-----------|-0-----0-|
D|-------------|-2-----------|c2-----------|---------|
A|-------------|-------------|-------------|---------|
E|-------------|-------------|-------------|---------|
                     molto rall.

25 |  |  |   |  |  |   |  |  |   |  |  |
E|-------------|-3-----------|-0-----------|---------0-|
B|-------------|-1-----------|-1-----------|-----3-----|
G|-----0---0---|-------------|-------------|-----2-----|
D|-----2---2---|-------------|-------------|-----3-----|
A|-3-----------|-------------|-------------|-----------|
E|-------------|-------------|-------------|-1---------|
     a tempo

29 |  |  |   |  |  |   |  |  |   |  |  |
E|-------------|-------------|-------------|-3-|
B|-3-----------|c3-----------|-----1---3---|-1-|
G|-2-----------|c2-----------|-----0-------|---|
D|-3-----------|c3-----------|-----2-------|---|
A|-------------|-------------|-------------|---|
E|c1-----------|c1-----------|-0-----------|c0-|

33 |  |  |   |  |  |   |  |  |   |  |  |
E|-0-----------|c0-------0---|-------------|---|
B|-1-----------|c1---3-------|-3-----------|-1-|
G|-------------|-----2-------|c2-----------|---|
D|-------------|-----3-------|c3-----------|---|
A|-------------|-------------|-------------|---|
E|c0-----------|-1-----------|c1-----------|---|

37 |  |  |   |  |  |   |  |  |   |  |  |
E|-------------|-5-----3-----|c3-----0-----|-0-------0-|
B|c1---1---3---|-5-----------|c5-----------|-----3-----|
G|-----0-------|-------------|-------------|-----2-----|
D|-------------|-------------|-------------|-----3-----|
A|-------------|-------------|-------------|-0---------|
E|-3-----------|-------------|-------------|-----------|
  cresc....... dim.......................
                              fermatta
41 |  |  |   |  |  |   |  |  |   |  |  |
E|-------------|-------------|-------------|-8-|
B|-3-----1-----|-1-----------|-1-----------|-8-|
G|-2-----------|-2-----2-----|-0-----------|-9-|
D|-------------|-------------|-2-----------|---|
A|c0-----------|c0-----------|-------------|---|
E|-------------|-------------|-------------|---|
                rit.
Добавлено: 12.05.2016
Другие материалы по этой песне:
  • Аккорды и текст

Страница создана 12.05.2016
http://primanota.ru/claude-debussy/lunnyi-svet-clair-de-lune-chords.htm
Привет, Гость.
Предлагаем пройти революционный курс по гитаре.
Подарок от PrimaNota.Ru, забирай!