PrimaNota.ru - самый крупный в мире бесплатный архив песенных текстов, аккордов, табулатур и нот


Дебюсси Клод - Картинки - аккорды и текст, видео

Регистрация Запомнить меня
Войти через:  Facebook Google Twitter Vk Yandex Mail.ru

Дебюсси Клод - Картинки - аккорды и текст, видео

Печатать
Просмотров: 301
Картинки
Дебюсси Клод
E|------------------------------------|
B|-------------------10-----------10--|
G|----------------10-----------10-----|
D|-------7-----11-----------11--------|
A|-----8----14-----------14-----------|
E|-7-9--------------------------------|

E|-------------19--------------------------|
B|-------18-22----22-18--------10----------|
G|----18----------------18--------10-------|
D|-21----------------------21--------11----|
A|--------------------------------------14-|
E|-----------------------------------------|

E|------------------------|
B|-10---------------------|
G|----10------------------|
D|-------11---------------|
A|----------14-12-9-------|
E|------------------9-----|

E|-----------------------------------------------|
B|-------------------10-----------10-------18-22-|
G|----------------10-----------10-------18-------|
D|-------7-----11-----------11-------21----------|
A|-----8----14-----------14----------------------|
E|-7-9-------------------------------------------|


E|-19---------------------------------------------------|
B|----22-18--------10------------10---------------------|
G|----------18--------10------------10------------------|
D|-------------21--------11------------11---------------|
A|--------------------------14------------14-12-9-------|
E|------------------------------------------------9-----|


E|-------------------------------------------|
B|-------------------10-12-10----------------|
G|----------------10----------10-------------|
D|-------7-----11----------------11-9--------|
A|-----8----14------------------------12-9---|
E|-7-9-------------------------------------9-|

E|---------------------------------------------|
B|-------------------10-12-10------------------|
G|----------------10----------10---------------|
D|-------7-----11-----------------11-9---------|
A|-----8----14-------------------------12-9----|
E|-7-9--------------------------------------9--|


E|-----------------------------14-17----17-14------------------|
B|-----------------------14-16-------14-------16-14------------|
G|-----------------11-14----------------------------14-11------|
D|-----------11-13----------------------------------------13-11|
A|------9-12---------------------------------------------------|
E|-7-11--------------------------------------------------------|


E|----------|
B|----------|
G|----------|
D|----------|
A|-12-9-----|
E|------11--|

E|-----------------------------14-17----17-14------------------|
B|-----------------------14-16-------14-------16-14------------|
G|-----------------11-14----------------------------14-11------|
D|-----------11-13----------------------------------------13-11|
A|------9-12---------------------------------------------------|
E|-7-11--------------------------------------------------------|


E|----------|---------------------------------------|
B|----------|-------------------10------------------|
G|----------|--------------7-11----11-7-------------|
D|----------|---------7-10--------------10-7--------|
A|-12-9-----|-----5-9------------------------9-5----|
E|------11--|-5-8--------------------------------8--|

E|---------------------------------------|
B|-------------------10------------------|
G|--------------8-11----11--8------------|
D|---------7-10---------------10-7-------|
A|-----6-9-------------------------9-6---|
E|-4-8---------------------------------8-|
Добавлено: 31.08.2013
Другие материалы по этой песне:
  • Аккорды и текст

Страница создана 31.08.2013
http://primanota.ru/claude-debussy/kartinki-chords.htm
Привет, Гость.
Предлагаем пройти революционный курс по гитаре.
Подарок от PrimaNota.Ru, забирай!